ISO-10303-21;
HEADER;
/* Generated by software containing ST-Developer
 * from STEP Tools, Inc. (www.steptools.com) 
 */
/* OPTION: using custom schema-name function */

FILE_DESCRIPTION(
/* description */ (''),
/* implementation_level */ '2;1');

FILE_NAME(
/* name */ 'ATUM-37XD3-KDR-1304-light.stp',
/* time_stamp */ '2023-10-27T06:09:48+03:00',
/* author */ (''),
/* organization */ (''),
/* preprocessor_version */ 'ST-DEVELOPER v19.4',
/* originating_system */ 'SIEMENS PLM Software NX2306.3001',
/* authorisation */ '');

FILE_SCHEMA (('AUTOMOTIVE_DESIGN { 1 0 10303 214 3 1 1 1 }'));
ENDSEC;

DATA;
#10=SHAPE_REPRESENTATION_RELATIONSHIP('None',
'relationship between STP_ATUM 37XD3 KDR 1304..-None and STP_ATUM 37XD
3 KDR 1304..-None',#22,#11);
#11=ADVANCED_BREP_SHAPE_REPRESENTATION('STP_ATUM 37XD3 KDR 1304..-None',
(#73,#74),#699);
#12=SHAPE_DEFINITION_REPRESENTATION(#13,#22);
#13=PRODUCT_DEFINITION_SHAPE('','',#14);
#14=PRODUCT_DEFINITION(' ','',#16,#15);
#15=PRODUCT_DEFINITION_CONTEXT('part definition',#21,'design');
#16=PRODUCT_DEFINITION_FORMATION_WITH_SPECIFIED_SOURCE(' ',' ',#18,
 .NOT_KNOWN.);
#17=PRODUCT_RELATED_PRODUCT_CATEGORY('part','',(#18));
#18=PRODUCT('STP_ATUM 37XD3 KDR 1304..','STP_ATUM 37XD3 KDR 1304..',' ',
(#19));
#19=PRODUCT_CONTEXT(' ',#21,'mechanical');
#20=APPLICATION_PROTOCOL_DEFINITION('international standard',
'automotive_design',2010,#21);
#21=APPLICATION_CONTEXT(
'core data for automotive mechanical design processes');
#22=SHAPE_REPRESENTATION('STP_ATUM 37XD3 KDR 1304..-None',(#402),#699);
#23=DRAUGHTING_PRE_DEFINED_COLOUR('yellow');
#24=B_SPLINE_CURVE_WITH_KNOTS('',3,(#657,#658,#659,#660,#661,#662,#663),
 .UNSPECIFIED.,.F.,.F.,(4,1,1,1,4),(0.,0.25,0.5,0.75,1.),.UNSPECIFIED.);
#25=B_SPLINE_CURVE_WITH_KNOTS('',3,(#671,#672,#673,#674,#675,#676,#677),
 .UNSPECIFIED.,.F.,.F.,(4,1,1,1,4),(0.,0.25,0.5,0.75,1.),.UNSPECIFIED.);
#26=B_SPLINE_CURVE_WITH_KNOTS('',3,(#683,#684,#685,#686,#687,#688,#689),
 .UNSPECIFIED.,.F.,.F.,(4,1,1,1,4),(0.,0.25,0.5,0.75,1.),.UNSPECIFIED.);
#27=SURFACE_OF_REVOLUTION('',#45,#36);
#28=SURFACE_OF_REVOLUTION('',#24,#37);
#29=SURFACE_OF_REVOLUTION('',#46,#38);
#30=SURFACE_OF_REVOLUTION('',#25,#39);
#31=SURFACE_OF_REVOLUTION('',#47,#40);
#32=SURFACE_OF_REVOLUTION('',#26,#41);
#33=SURFACE_OF_REVOLUTION('',#48,#42);
#34=SURFACE_OF_REVOLUTION('',#49,#43);
#35=SURFACE_OF_REVOLUTION('',#50,#44);
#36=AXIS1_PLACEMENT('',#652,#553);
#37=AXIS1_PLACEMENT('',#664,#558);
#38=AXIS1_PLACEMENT('',#668,#562);
#39=AXIS1_PLACEMENT('',#678,#565);
#40=AXIS1_PLACEMENT('',#682,#569);
#41=AXIS1_PLACEMENT('',#690,#570);
#42=AXIS1_PLACEMENT('',#692,#572);
#43=AXIS1_PLACEMENT('',#696,#576);
#44=AXIS1_PLACEMENT('',#698,#578);
#45=LINE('',#651,#51);
#46=LINE('',#667,#52);
#47=LINE('',#681,#53);
#48=LINE('',#691,#54);
#49=LINE('',#695,#55);
#50=LINE('',#697,#56);
#51=VECTOR('',#552,10.7219497478243);
#52=VECTOR('',#561,11.0367456331047);
#53=VECTOR('',#568,11.0367456331047);
#54=VECTOR('',#571,2.61685614715311);
#55=VECTOR('',#575,2.41513799611262);
#56=VECTOR('',#577,5.54548263575167);
#57=PRESENTATION_LAYER_ASSIGNMENT('1','Layer 1',(#73,#74));
#58=STYLED_ITEM('',(#60),#73);
#59=STYLED_ITEM('',(#61),#74);
#60=PRESENTATION_STYLE_ASSIGNMENT((#62));
#61=PRESENTATION_STYLE_ASSIGNMENT((#63));
#62=SURFACE_STYLE_USAGE(.BOTH.,#64);
#63=SURFACE_STYLE_USAGE(.BOTH.,#65);
#64=SURFACE_SIDE_STYLE('',(#66));
#65=SURFACE_SIDE_STYLE('',(#67));
#66=SURFACE_STYLE_FILL_AREA(#68);
#67=SURFACE_STYLE_FILL_AREA(#69);
#68=FILL_AREA_STYLE('',(#70));
#69=FILL_AREA_STYLE('',(#71));
#70=FILL_AREA_STYLE_COLOUR('',#72);
#71=FILL_AREA_STYLE_COLOUR('',#23);
#72=COLOUR_RGB('smoke gray',0.694117647058824,0.694117647058824,0.694117647058824);
#73=MANIFOLD_SOLID_BREP('',#75);
#74=MANIFOLD_SOLID_BREP('',#76);
#75=CLOSED_SHELL('',(#96,#97,#98,#99,#100,#101,#102,#103,#104,#105,#106,
#107,#108,#109,#110,#111,#112,#113,#114,#115,#116));
#76=CLOSED_SHELL('',(#117,#118,#119,#120,#121,#122,#123,#124,#125,#126,
#127));
#77=FACE_OUTER_BOUND('',#216,.T.);
#78=FACE_OUTER_BOUND('',#231,.T.);
#79=FACE_OUTER_BOUND('',#232,.T.);
#80=FACE_OUTER_BOUND('',#233,.T.);
#81=PLANE('',#425);
#82=PLANE('',#428);
#83=PLANE('',#443);
#84=PLANE('',#445);
#85=PLANE('',#447);
#86=CONICAL_SURFACE('',#411,15.8103073792141,20.0000000000143);
#87=CONICAL_SURFACE('',#415,16.,15.0000000000003);
#88=CONICAL_SURFACE('',#423,16.205669240384,82.0000000000002);
#89=CONICAL_SURFACE('',#434,21.9202515050007,13.2405199151872);
#90=CONICAL_SURFACE('',#440,17.9999999999994,2.99999999999347);
#91=CYLINDRICAL_SURFACE('',#407,15.75);
#92=CYLINDRICAL_SURFACE('',#413,16.);
#93=CYLINDRICAL_SURFACE('',#419,15.75);
#94=CYLINDRICAL_SURFACE('',#430,22.);
#95=CYLINDRICAL_SURFACE('',#438,17.9999999999994);
#96=ADVANCED_FACE('',(#136,#137),#128,.T.);
#97=ADVANCED_FACE('',(#138,#139),#91,.T.);
#98=ADVANCED_FACE('',(#140,#141),#129,.F.);
#99=ADVANCED_FACE('',(#142,#143),#86,.T.);
#100=ADVANCED_FACE('',(#144,#145),#92,.T.);
#101=ADVANCED_FACE('',(#146,#147),#87,.T.);
#102=ADVANCED_FACE('',(#148,#149),#130,.F.);
#103=ADVANCED_FACE('',(#150,#151),#93,.T.);
#104=ADVANCED_FACE('',(#152,#153),#131,.F.);
#105=ADVANCED_FACE('',(#154,#155),#88,.F.);
#106=ADVANCED_FACE('',(#156,#157),#81,.F.);
#107=ADVANCED_FACE('',(#158,#159),#132,.T.);
#108=ADVANCED_FACE('',(#77),#82,.F.);
#109=ADVANCED_FACE('',(#160,#161),#94,.T.);
#110=ADVANCED_FACE('',(#162,#163),#133,.T.);
#111=ADVANCED_FACE('',(#164,#165),#89,.T.);
#112=ADVANCED_FACE('',(#166,#167),#134,.F.);
#113=ADVANCED_FACE('',(#168,#169),#95,.T.);
#114=ADVANCED_FACE('',(#170,#171),#90,.T.);
#115=ADVANCED_FACE('',(#172,#173),#135,.T.);
#116=ADVANCED_FACE('',(#78),#83,.F.);
#117=ADVANCED_FACE('',(#79),#84,.F.);
#118=ADVANCED_FACE('',(#80),#85,.T.);
#119=ADVANCED_FACE('',(#174,#175),#27,.T.);
#120=ADVANCED_FACE('',(#176,#177),#28,.T.);
#121=ADVANCED_FACE('',(#178,#179),#29,.T.);
#122=ADVANCED_FACE('',(#180,#181),#30,.T.);
#123=ADVANCED_FACE('',(#182,#183),#31,.T.);
#124=ADVANCED_FACE('',(#184,#185),#32,.T.);
#125=ADVANCED_FACE('',(#186,#187),#33,.T.);
#126=ADVANCED_FACE('',(#188,#189),#34,.T.);
#127=ADVANCED_FACE('',(#190,#191),#35,.T.);
#128=TOROIDAL_SURFACE('',#405,14.75,0.999999999999972);
#129=TOROIDAL_SURFACE('',#409,16.75,1.00000000000011);
#130=TOROIDAL_SURFACE('',#417,16.15,0.399999999999997);
#131=TOROIDAL_SURFACE('',#421,16.15,0.399999999999943);
#132=TOROIDAL_SURFACE('',#427,21.3,0.800000000000011);
#133=TOROIDAL_SURFACE('',#432,19.,3.);
#134=TOROIDAL_SURFACE('',#436,22.9999999999994,5.);
#135=TOROIDAL_SURFACE('',#442,16.3307990412594,1.4);
#136=FACE_BOUND('',#192,.T.);
#137=FACE_BOUND('',#193,.T.);
#138=FACE_BOUND('',#194,.T.);
#139=FACE_BOUND('',#195,.T.);
#140=FACE_BOUND('',#196,.T.);
#141=FACE_BOUND('',#197,.T.);
#142=FACE_BOUND('',#198,.T.);
#143=FACE_BOUND('',#199,.T.);
#144=FACE_BOUND('',#200,.T.);
#145=FACE_BOUND('',#201,.T.);
#146=FACE_BOUND('',#202,.T.);
#147=FACE_BOUND('',#203,.T.);
#148=FACE_BOUND('',#204,.T.);
#149=FACE_BOUND('',#205,.T.);
#150=FACE_BOUND('',#206,.T.);
#151=FACE_BOUND('',#207,.T.);
#152=FACE_BOUND('',#208,.T.);
#153=FACE_BOUND('',#209,.T.);
#154=FACE_BOUND('',#210,.T.);
#155=FACE_BOUND('',#211,.T.);
#156=FACE_BOUND('',#212,.T.);
#157=FACE_BOUND('',#213,.T.);
#158=FACE_BOUND('',#214,.T.);
#159=FACE_BOUND('',#215,.T.);
#160=FACE_BOUND('',#217,.T.);
#161=FACE_BOUND('',#218,.T.);
#162=FACE_BOUND('',#219,.T.);
#163=FACE_BOUND('',#220,.T.);
#164=FACE_BOUND('',#221,.T.);
#165=FACE_BOUND('',#222,.T.);
#166=FACE_BOUND('',#223,.T.);
#167=FACE_BOUND('',#224,.T.);
#168=FACE_BOUND('',#225,.T.);
#169=FACE_BOUND('',#226,.T.);
#170=FACE_BOUND('',#227,.T.);
#171=FACE_BOUND('',#228,.T.);
#172=FACE_BOUND('',#229,.T.);
#173=FACE_BOUND('',#230,.T.);
#174=FACE_BOUND('',#234,.T.);
#175=FACE_BOUND('',#235,.T.);
#176=FACE_BOUND('',#236,.T.);
#177=FACE_BOUND('',#237,.T.);
#178=FACE_BOUND('',#238,.T.);
#179=FACE_BOUND('',#239,.T.);
#180=FACE_BOUND('',#240,.T.);
#181=FACE_BOUND('',#241,.T.);
#182=FACE_BOUND('',#242,.T.);
#183=FACE_BOUND('',#243,.T.);
#184=FACE_BOUND('',#244,.T.);
#185=FACE_BOUND('',#245,.T.);
#186=FACE_BOUND('',#246,.T.);
#187=FACE_BOUND('',#247,.T.);
#188=FACE_BOUND('',#248,.T.);
#189=FACE_BOUND('',#249,.T.);
#190=FACE_BOUND('',#250,.T.);
#191=FACE_BOUND('',#251,.T.);
#192=EDGE_LOOP('',(#252));
#193=EDGE_LOOP('',(#253));
#194=EDGE_LOOP('',(#254));
#195=EDGE_LOOP('',(#255));
#196=EDGE_LOOP('',(#256));
#197=EDGE_LOOP('',(#257));
#198=EDGE_LOOP('',(#258));
#199=EDGE_LOOP('',(#259));
#200=EDGE_LOOP('',(#260));
#201=EDGE_LOOP('',(#261));
#202=EDGE_LOOP('',(#262));
#203=EDGE_LOOP('',(#263));
#204=EDGE_LOOP('',(#264));
#205=EDGE_LOOP('',(#265));
#206=EDGE_LOOP('',(#266));
#207=EDGE_LOOP('',(#267));
#208=EDGE_LOOP('',(#268));
#209=EDGE_LOOP('',(#269));
#210=EDGE_LOOP('',(#270));
#211=EDGE_LOOP('',(#271));
#212=EDGE_LOOP('',(#272));
#213=EDGE_LOOP('',(#273));
#214=EDGE_LOOP('',(#274));
#215=EDGE_LOOP('',(#275));
#216=EDGE_LOOP('',(#276));
#217=EDGE_LOOP('',(#277));
#218=EDGE_LOOP('',(#278));
#219=EDGE_LOOP('',(#279));
#220=EDGE_LOOP('',(#280));
#221=EDGE_LOOP('',(#281));
#222=EDGE_LOOP('',(#282));
#223=EDGE_LOOP('',(#283));
#224=EDGE_LOOP('',(#284));
#225=EDGE_LOOP('',(#285));
#226=EDGE_LOOP('',(#286));
#227=EDGE_LOOP('',(#287));
#228=EDGE_LOOP('',(#288));
#229=EDGE_LOOP('',(#289));
#230=EDGE_LOOP('',(#290));
#231=EDGE_LOOP('',(#291));
#232=EDGE_LOOP('',(#292));
#233=EDGE_LOOP('',(#293));
#234=EDGE_LOOP('',(#294));
#235=EDGE_LOOP('',(#295));
#236=EDGE_LOOP('',(#296));
#237=EDGE_LOOP('',(#297));
#238=EDGE_LOOP('',(#298));
#239=EDGE_LOOP('',(#299));
#240=EDGE_LOOP('',(#300));
#241=EDGE_LOOP('',(#301));
#242=EDGE_LOOP('',(#302));
#243=EDGE_LOOP('',(#303));
#244=EDGE_LOOP('',(#304));
#245=EDGE_LOOP('',(#305));
#246=EDGE_LOOP('',(#306));
#247=EDGE_LOOP('',(#307));
#248=EDGE_LOOP('',(#308));
#249=EDGE_LOOP('',(#309));
#250=EDGE_LOOP('',(#310));
#251=EDGE_LOOP('',(#311));
#252=ORIENTED_EDGE('',*,*,#342,.T.);
#253=ORIENTED_EDGE('',*,*,#343,.T.);
#254=ORIENTED_EDGE('',*,*,#344,.T.);
#255=ORIENTED_EDGE('',*,*,#342,.F.);
#256=ORIENTED_EDGE('',*,*,#345,.T.);
#257=ORIENTED_EDGE('',*,*,#344,.F.);
#258=ORIENTED_EDGE('',*,*,#346,.T.);
#259=ORIENTED_EDGE('',*,*,#345,.F.);
#260=ORIENTED_EDGE('',*,*,#347,.T.);
#261=ORIENTED_EDGE('',*,*,#346,.F.);
#262=ORIENTED_EDGE('',*,*,#348,.T.);
#263=ORIENTED_EDGE('',*,*,#347,.F.);
#264=ORIENTED_EDGE('',*,*,#349,.T.);
#265=ORIENTED_EDGE('',*,*,#348,.F.);
#266=ORIENTED_EDGE('',*,*,#350,.T.);
#267=ORIENTED_EDGE('',*,*,#349,.F.);
#268=ORIENTED_EDGE('',*,*,#351,.T.);
#269=ORIENTED_EDGE('',*,*,#350,.F.);
#270=ORIENTED_EDGE('',*,*,#352,.T.);
#271=ORIENTED_EDGE('',*,*,#351,.F.);
#272=ORIENTED_EDGE('',*,*,#353,.T.);
#273=ORIENTED_EDGE('',*,*,#352,.F.);
#274=ORIENTED_EDGE('',*,*,#354,.T.);
#275=ORIENTED_EDGE('',*,*,#353,.F.);
#276=ORIENTED_EDGE('',*,*,#343,.F.);
#277=ORIENTED_EDGE('',*,*,#355,.T.);
#278=ORIENTED_EDGE('',*,*,#354,.F.);
#279=ORIENTED_EDGE('',*,*,#356,.T.);
#280=ORIENTED_EDGE('',*,*,#355,.F.);
#281=ORIENTED_EDGE('',*,*,#357,.T.);
#282=ORIENTED_EDGE('',*,*,#356,.F.);
#283=ORIENTED_EDGE('',*,*,#358,.T.);
#284=ORIENTED_EDGE('',*,*,#357,.F.);
#285=ORIENTED_EDGE('',*,*,#359,.T.);
#286=ORIENTED_EDGE('',*,*,#358,.F.);
#287=ORIENTED_EDGE('',*,*,#360,.T.);
#288=ORIENTED_EDGE('',*,*,#359,.F.);
#289=ORIENTED_EDGE('',*,*,#361,.T.);
#290=ORIENTED_EDGE('',*,*,#360,.F.);
#291=ORIENTED_EDGE('',*,*,#361,.F.);
#292=ORIENTED_EDGE('',*,*,#362,.F.);
#293=ORIENTED_EDGE('',*,*,#363,.T.);
#294=ORIENTED_EDGE('',*,*,#364,.T.);
#295=ORIENTED_EDGE('',*,*,#365,.F.);
#296=ORIENTED_EDGE('',*,*,#366,.F.);
#297=ORIENTED_EDGE('',*,*,#367,.F.);
#298=ORIENTED_EDGE('',*,*,#368,.F.);
#299=ORIENTED_EDGE('',*,*,#366,.T.);
#300=ORIENTED_EDGE('',*,*,#369,.F.);
#301=ORIENTED_EDGE('',*,*,#368,.T.);
#302=ORIENTED_EDGE('',*,*,#370,.F.);
#303=ORIENTED_EDGE('',*,*,#369,.T.);
#304=ORIENTED_EDGE('',*,*,#364,.F.);
#305=ORIENTED_EDGE('',*,*,#370,.T.);
#306=ORIENTED_EDGE('',*,*,#363,.F.);
#307=ORIENTED_EDGE('',*,*,#365,.T.);
#308=ORIENTED_EDGE('',*,*,#371,.T.);
#309=ORIENTED_EDGE('',*,*,#367,.T.);
#310=ORIENTED_EDGE('',*,*,#371,.F.);
#311=ORIENTED_EDGE('',*,*,#362,.T.);
#312=VERTEX_POINT('',#581);
#313=VERTEX_POINT('',#583);
#314=VERTEX_POINT('',#586);
#315=VERTEX_POINT('',#589);
#316=VERTEX_POINT('',#592);
#317=VERTEX_POINT('',#595);
#318=VERTEX_POINT('',#598);
#319=VERTEX_POINT('',#601);
#320=VERTEX_POINT('',#604);
#321=VERTEX_POINT('',#607);
#322=VERTEX_POINT('',#610);
#323=VERTEX_POINT('',#613);
#324=VERTEX_POINT('',#616);
#325=VERTEX_POINT('',#620);
#326=VERTEX_POINT('',#623);
#327=VERTEX_POINT('',#626);
#328=VERTEX_POINT('',#629);
#329=VERTEX_POINT('',#632);
#330=VERTEX_POINT('',#635);
#331=VERTEX_POINT('',#638);
#332=VERTEX_POINT('',#642);
#333=VERTEX_POINT('',#645);
#334=VERTEX_POINT('',#648);
#335=VERTEX_POINT('',#650);
#336=VERTEX_POINT('',#654);
#337=VERTEX_POINT('',#656);
#338=VERTEX_POINT('',#666);
#339=VERTEX_POINT('',#670);
#340=VERTEX_POINT('',#680);
#341=VERTEX_POINT('',#694);
#342=EDGE_CURVE('',#312,#312,#372,.T.);
#343=EDGE_CURVE('',#313,#313,#373,.T.);
#344=EDGE_CURVE('',#314,#314,#374,.T.);
#345=EDGE_CURVE('',#315,#315,#375,.T.);
#346=EDGE_CURVE('',#316,#316,#376,.T.);
#347=EDGE_CURVE('',#317,#317,#377,.T.);
#348=EDGE_CURVE('',#318,#318,#378,.T.);
#349=EDGE_CURVE('',#319,#319,#379,.T.);
#350=EDGE_CURVE('',#320,#320,#380,.T.);
#351=EDGE_CURVE('',#321,#321,#381,.T.);
#352=EDGE_CURVE('',#322,#322,#382,.T.);
#353=EDGE_CURVE('',#323,#323,#383,.T.);
#354=EDGE_CURVE('',#324,#324,#384,.T.);
#355=EDGE_CURVE('',#325,#325,#385,.T.);
#356=EDGE_CURVE('',#326,#326,#386,.T.);
#357=EDGE_CURVE('',#327,#327,#387,.T.);
#358=EDGE_CURVE('',#328,#328,#388,.T.);
#359=EDGE_CURVE('',#329,#329,#389,.T.);
#360=EDGE_CURVE('',#330,#330,#390,.T.);
#361=EDGE_CURVE('',#331,#331,#391,.T.);
#362=EDGE_CURVE('',#332,#332,#392,.T.);
#363=EDGE_CURVE('',#333,#333,#393,.T.);
#364=EDGE_CURVE('',#334,#334,#394,.T.);
#365=EDGE_CURVE('',#335,#335,#395,.T.);
#366=EDGE_CURVE('',#336,#336,#396,.T.);
#367=EDGE_CURVE('',#337,#337,#397,.T.);
#368=EDGE_CURVE('',#338,#338,#398,.T.);
#369=EDGE_CURVE('',#339,#339,#399,.T.);
#370=EDGE_CURVE('',#340,#340,#400,.T.);
#371=EDGE_CURVE('',#341,#341,#401,.T.);
#372=CIRCLE('',#403,15.75);
#373=CIRCLE('',#404,14.75);
#374=CIRCLE('',#406,15.75);
#375=CIRCLE('',#408,15.8103073792141);
#376=CIRCLE('',#410,16.);
#377=CIRCLE('',#412,16.);
#378=CIRCLE('',#414,15.7636296694844);
#379=CIRCLE('',#416,15.75);
#380=CIRCLE('',#418,15.75);
#381=CIRCLE('',#420,16.205669240384);
#382=CIRCLE('',#422,17.);
#383=CIRCLE('',#424,21.3);
#384=CIRCLE('',#426,22.);
#385=CIRCLE('',#429,22.);
#386=CIRCLE('',#431,21.9202515050007);
#387=CIRCLE('',#433,18.1329141583315);
#388=CIRCLE('',#435,17.9999999999994);
#389=CIRCLE('',#437,17.9999999999994);
#390=CIRCLE('',#439,17.7288803899158);
#391=CIRCLE('',#441,16.3307990412594);
#392=CIRCLE('',#444,1.66954278993661);
#393=CIRCLE('',#446,3.81045145389735);
#394=CIRCLE('',#448,17.0836179320847);
#395=CIRCLE('',#449,6.3826569379209);
#396=CIRCLE('',#450,6.57403553856508);
#397=CIRCLE('',#451,6.18123843396854);
#398=CIRCLE('',#452,17.5564368172097);
#399=CIRCLE('',#453,18.4999888226226);
#400=CIRCLE('',#454,18.0994410158193);
#401=CIRCLE('',#455,3.80527271287259);
#402=AXIS2_PLACEMENT_3D('',#579,#456,#457);
#403=AXIS2_PLACEMENT_3D('',#580,#458,#459);
#404=AXIS2_PLACEMENT_3D('',#582,#460,#461);
#405=AXIS2_PLACEMENT_3D('',#584,#462,#463);
#406=AXIS2_PLACEMENT_3D('',#585,#464,#465);
#407=AXIS2_PLACEMENT_3D('',#587,#466,#467);
#408=AXIS2_PLACEMENT_3D('',#588,#468,#469);
#409=AXIS2_PLACEMENT_3D('',#590,#470,#471);
#410=AXIS2_PLACEMENT_3D('',#591,#472,#473);
#411=AXIS2_PLACEMENT_3D('',#593,#474,#475);
#412=AXIS2_PLACEMENT_3D('',#594,#476,#477);
#413=AXIS2_PLACEMENT_3D('',#596,#478,#479);
#414=AXIS2_PLACEMENT_3D('',#597,#480,#481);
#415=AXIS2_PLACEMENT_3D('',#599,#482,#483);
#416=AXIS2_PLACEMENT_3D('',#600,#484,#485);
#417=AXIS2_PLACEMENT_3D('',#602,#486,#487);
#418=AXIS2_PLACEMENT_3D('',#603,#488,#489);
#419=AXIS2_PLACEMENT_3D('',#605,#490,#491);
#420=AXIS2_PLACEMENT_3D('',#606,#492,#493);
#421=AXIS2_PLACEMENT_3D('',#608,#494,#495);
#422=AXIS2_PLACEMENT_3D('',#609,#496,#497);
#423=AXIS2_PLACEMENT_3D('',#611,#498,#499);
#424=AXIS2_PLACEMENT_3D('',#612,#500,#501);
#425=AXIS2_PLACEMENT_3D('',#614,#502,#503);
#426=AXIS2_PLACEMENT_3D('',#615,#504,#505);
#427=AXIS2_PLACEMENT_3D('',#617,#506,#507);
#428=AXIS2_PLACEMENT_3D('',#618,#508,#509);
#429=AXIS2_PLACEMENT_3D('',#619,#510,#511);
#430=AXIS2_PLACEMENT_3D('',#621,#512,#513);
#431=AXIS2_PLACEMENT_3D('',#622,#514,#515);
#432=AXIS2_PLACEMENT_3D('',#624,#516,#517);
#433=AXIS2_PLACEMENT_3D('',#625,#518,#519);
#434=AXIS2_PLACEMENT_3D('',#627,#520,#521);
#435=AXIS2_PLACEMENT_3D('',#628,#522,#523);
#436=AXIS2_PLACEMENT_3D('',#630,#524,#525);
#437=AXIS2_PLACEMENT_3D('',#631,#526,#527);
#438=AXIS2_PLACEMENT_3D('',#633,#528,#529);
#439=AXIS2_PLACEMENT_3D('',#634,#530,#531);
#440=AXIS2_PLACEMENT_3D('',#636,#532,#533);
#441=AXIS2_PLACEMENT_3D('',#637,#534,#535);
#442=AXIS2_PLACEMENT_3D('',#639,#536,#537);
#443=AXIS2_PLACEMENT_3D('',#640,#538,#539);
#444=AXIS2_PLACEMENT_3D('',#641,#540,#541);
#445=AXIS2_PLACEMENT_3D('',#643,#542,#543);
#446=AXIS2_PLACEMENT_3D('',#644,#544,#545);
#447=AXIS2_PLACEMENT_3D('',#646,#546,#547);
#448=AXIS2_PLACEMENT_3D('',#647,#548,#549);
#449=AXIS2_PLACEMENT_3D('',#649,#550,#551);
#450=AXIS2_PLACEMENT_3D('',#653,#554,#555);
#451=AXIS2_PLACEMENT_3D('',#655,#556,#557);
#452=AXIS2_PLACEMENT_3D('',#665,#559,#560);
#453=AXIS2_PLACEMENT_3D('',#669,#563,#564);
#454=AXIS2_PLACEMENT_3D('',#679,#566,#567);
#455=AXIS2_PLACEMENT_3D('',#693,#573,#574);
#456=DIRECTION('',(0.,0.,1.));
#457=DIRECTION('',(1.,0.,0.));
#458=DIRECTION('',(1.,0.,0.));
#459=DIRECTION('',(0.,0.,1.));
#460=DIRECTION('',(-1.,0.,0.));
#461=DIRECTION('',(0.,0.,1.));
#462=DIRECTION('',(-1.,0.,0.));
#463=DIRECTION('',(0.,0.,1.));
#464=DIRECTION('',(1.,0.,0.));
#465=DIRECTION('',(0.,0.,1.));
#466=DIRECTION('',(-1.,0.,0.));
#467=DIRECTION('',(0.,0.,1.));
#468=DIRECTION('',(1.,0.,0.));
#469=DIRECTION('',(0.,0.,1.));
#470=DIRECTION('',(-1.,0.,0.));
#471=DIRECTION('',(0.,0.,1.));
#472=DIRECTION('',(1.,0.,0.));
#473=DIRECTION('',(0.,0.,1.));
#474=DIRECTION('',(-1.,0.,0.));
#475=DIRECTION('',(0.,0.,1.));
#476=DIRECTION('',(1.,0.,0.));
#477=DIRECTION('',(0.,0.,1.));
#478=DIRECTION('',(-1.,0.,0.));
#479=DIRECTION('',(0.,0.,1.));
#480=DIRECTION('',(1.,0.,0.));
#481=DIRECTION('',(0.,0.,1.));
#482=DIRECTION('',(1.,0.,0.));
#483=DIRECTION('',(3.90993548923173E-16,0.,-1.));
#484=DIRECTION('',(1.,0.,0.));
#485=DIRECTION('',(0.,0.,1.));
#486=DIRECTION('',(-1.,0.,0.));
#487=DIRECTION('',(0.,0.,1.));
#488=DIRECTION('',(1.,0.,0.));
#489=DIRECTION('',(0.,0.,1.));
#490=DIRECTION('',(-1.,0.,0.));
#491=DIRECTION('',(0.,0.,1.));
#492=DIRECTION('',(1.,0.,0.));
#493=DIRECTION('',(0.,0.,1.));
#494=DIRECTION('',(-1.,0.,0.));
#495=DIRECTION('',(0.,0.,1.));
#496=DIRECTION('',(1.,0.,0.));
#497=DIRECTION('',(0.,0.,1.));
#498=DIRECTION('',(1.,0.,0.));
#499=DIRECTION('',(1.1675783017687E-17,0.,-1.));
#500=DIRECTION('',(1.,0.,0.));
#501=DIRECTION('',(0.,0.,1.));
#502=DIRECTION('',(-1.,0.,0.));
#503=DIRECTION('',(0.,0.,1.));
#504=DIRECTION('',(1.,0.,0.));
#505=DIRECTION('',(0.,0.,1.));
#506=DIRECTION('',(-1.,0.,0.));
#507=DIRECTION('',(0.,0.,1.));
#508=DIRECTION('',(-1.,0.,0.));
#509=DIRECTION('',(0.,0.,1.));
#510=DIRECTION('',(1.,0.,0.));
#511=DIRECTION('',(0.,0.,1.));
#512=DIRECTION('',(-1.,0.,0.));
#513=DIRECTION('',(0.,0.,1.));
#514=DIRECTION('',(1.,0.,0.));
#515=DIRECTION('',(0.,0.,1.));
#516=DIRECTION('',(-1.,0.,0.));
#517=DIRECTION('',(0.,0.,1.));
#518=DIRECTION('',(1.,0.,0.));
#519=DIRECTION('',(0.,0.,1.));
#520=DIRECTION('',(1.,0.,0.));
#521=DIRECTION('',(-1.07908340063305E-16,0.,-1.));
#522=DIRECTION('',(1.,0.,0.));
#523=DIRECTION('',(0.,0.,1.));
#524=DIRECTION('',(-1.,0.,0.));
#525=DIRECTION('',(0.,0.,1.));
#526=DIRECTION('',(1.,0.,0.));
#527=DIRECTION('',(0.,0.,1.));
#528=DIRECTION('',(-1.,0.,0.));
#529=DIRECTION('',(0.,0.,1.));
#530=DIRECTION('',(1.,0.,0.));
#531=DIRECTION('',(0.,0.,1.));
#532=DIRECTION('',(1.,0.,0.));
#533=DIRECTION('',(0.,0.,-1.));
#534=DIRECTION('',(1.,0.,0.));
#535=DIRECTION('',(0.,0.,1.));
#536=DIRECTION('',(-1.,0.,0.));
#537=DIRECTION('',(0.,0.,1.));
#538=DIRECTION('',(1.,0.,0.));
#539=DIRECTION('',(0.,0.,-1.));
#540=DIRECTION('',(1.,0.,0.));
#541=DIRECTION('',(0.,0.,-1.));
#542=DIRECTION('',(1.,0.,0.));
#543=DIRECTION('',(0.,0.,-1.));
#544=DIRECTION('',(1.,0.,0.));
#545=DIRECTION('',(0.,0.,-1.));
#546=DIRECTION('',(1.,0.,0.));
#547=DIRECTION('',(0.,0.,-1.));
#548=DIRECTION('',(1.,0.,0.));
#549=DIRECTION('',(0.,0.,-1.));
#550=DIRECTION('',(1.,0.,0.));
#551=DIRECTION('',(0.,0.,-1.));
#552=DIRECTION('',(-0.0348782368720627,0.999390827019096,0.00121797487008782));
#553=DIRECTION('',(1.,0.,0.));
#554=DIRECTION('',(1.,0.,0.));
#555=DIRECTION('',(0.,0.,-1.));
#556=DIRECTION('',(-1.,0.,0.));
#557=DIRECTION('',(0.,0.,-1.));
#558=DIRECTION('',(1.,0.,0.));
#559=DIRECTION('',(1.,0.,0.));
#560=DIRECTION('',(0.,0.,-1.));
#561=DIRECTION('',(0.0348782368720625,-0.999390827019096,-0.00121797487008783));
#562=DIRECTION('',(1.,0.,0.));
#563=DIRECTION('',(1.,0.,0.));
#564=DIRECTION('',(0.,0.,-1.));
#565=DIRECTION('',(1.,0.,0.));
#566=DIRECTION('',(1.,0.,0.));
#567=DIRECTION('',(0.,0.,-1.));
#568=DIRECTION('',(0.998782025129912,0.0348994967025013,-0.0348782368720626));
#569=DIRECTION('',(1.,0.,0.));
#570=DIRECTION('',(1.,0.,0.));
#571=DIRECTION('',(0.173542395888909,-0.978779406151604,-0.108967476444353));
#572=DIRECTION('',(1.,0.,0.));
#573=DIRECTION('',(1.,0.,0.));
#574=DIRECTION('',(0.,0.,-1.));
#575=DIRECTION('',(0.173542395888915,0.980046340046539,0.0969134056285203));
#576=DIRECTION('',(1.,0.,0.));
#577=DIRECTION('',(-0.17354239588891,0.978779406151604,0.108967476444353));
#578=DIRECTION('',(1.,0.,0.));
#579=CARTESIAN_POINT('',(0.,0.,0.));
#580=CARTESIAN_POINT('',(197.,0.,0.));
#581=CARTESIAN_POINT('',(197.,0.,15.75));
#582=CARTESIAN_POINT('',(198.,0.,0.));
#583=CARTESIAN_POINT('',(198.,0.,14.75));
#584=CARTESIAN_POINT('',(197.,0.,0.));
#585=CARTESIAN_POINT('',(195.176326980709,0.,0.));
#586=CARTESIAN_POINT('',(195.176326980709,0.,15.75));
#587=CARTESIAN_POINT('',(0.,0.,0.));
#588=CARTESIAN_POINT('',(194.834306837383,0.,0.));
#589=CARTESIAN_POINT('',(194.834306837383,0.,15.8103073792141));
#590=CARTESIAN_POINT('',(195.176326980709,0.,0.));
#591=CARTESIAN_POINT('',(194.313130645137,0.,0.));
#592=CARTESIAN_POINT('',(194.313130645137,0.,16.));
#593=CARTESIAN_POINT('',(194.834306837383,0.,0.));
#594=CARTESIAN_POINT('',(140.,0.,0.));
#595=CARTESIAN_POINT('',(140.,0.,16.));
#596=CARTESIAN_POINT('',(0.,0.,0.));
#597=CARTESIAN_POINT('',(139.117853917114,0.,0.));
#598=CARTESIAN_POINT('',(139.117853917114,0.,15.7636296694844));
#599=CARTESIAN_POINT('',(140.,0.,0.));
#600=CARTESIAN_POINT('',(139.014326299073,0.,0.));
#601=CARTESIAN_POINT('',(139.014326299073,0.,15.75));
#602=CARTESIAN_POINT('',(139.014326299073,0.,0.));
#603=CARTESIAN_POINT('',(138.28447131951,0.,0.));
#604=CARTESIAN_POINT('',(138.28447131951,0.,15.75));
#605=CARTESIAN_POINT('',(0.,0.,0.));
#606=CARTESIAN_POINT('',(137.888364092014,0.,0.));
#607=CARTESIAN_POINT('',(137.888364092014,0.,16.205669240384));
#608=CARTESIAN_POINT('',(138.28447131951,0.,0.));
#609=CARTESIAN_POINT('',(138.,0.,0.));
#610=CARTESIAN_POINT('',(138.,0.,17.));
#611=CARTESIAN_POINT('',(137.888364092014,0.,0.));
#612=CARTESIAN_POINT('',(138.,0.,0.));
#613=CARTESIAN_POINT('',(138.,0.,21.3));
#614=CARTESIAN_POINT('',(138.,17.,0.));
#615=CARTESIAN_POINT('',(137.587298334621,0.,0.));
#616=CARTESIAN_POINT('',(137.587298334621,0.,22.));
#617=CARTESIAN_POINT('',(137.2,0.,0.));
#618=CARTESIAN_POINT('',(198.,22.5,0.));
#619=CARTESIAN_POINT('',(133.34818689743,0.,0.));
#620=CARTESIAN_POINT('',(133.34818689743,0.,22.));
#621=CARTESIAN_POINT('',(0.,0.,0.));
#622=CARTESIAN_POINT('',(132.661068896253,0.,0.));
#623=CARTESIAN_POINT('',(132.661068896253,0.,21.9202515050007));
#624=CARTESIAN_POINT('',(133.34818689743,0.,0.));
#625=CARTESIAN_POINT('',(116.564885172909,0.,0.));
#626=CARTESIAN_POINT('',(116.564885172909,0.,18.1329141583315));
#627=CARTESIAN_POINT('',(132.661068896253,0.,0.));
#628=CARTESIAN_POINT('',(115.419688504281,0.,0.));
#629=CARTESIAN_POINT('',(115.419688504281,0.,17.9999999999994));
#630=CARTESIAN_POINT('',(115.419688504281,0.,0.));
#631=CARTESIAN_POINT('',(8.00000000000001,0.,0.));
#632=CARTESIAN_POINT('',(8.00000000000001,0.,17.9999999999994));
#633=CARTESIAN_POINT('',(0.,0.,0.));
#634=CARTESIAN_POINT('',(2.82672966125988,0.,0.));
#635=CARTESIAN_POINT('',(2.82672966125988,0.,17.7288803899158));
#636=CARTESIAN_POINT('',(8.00000000000001,0.,0.));
#637=CARTESIAN_POINT('',(1.5,0.,0.));
#638=CARTESIAN_POINT('',(1.5,0.,16.3307990412594));
#639=CARTESIAN_POINT('',(2.9,0.,0.));
#640=CARTESIAN_POINT('',(1.5,16.3307990412594,0.));
#641=CARTESIAN_POINT('',(0.964119434375598,0.,0.));
#642=CARTESIAN_POINT('',(0.964119434375598,0.,-1.66954278993661));
#643=CARTESIAN_POINT('',(0.964119434375598,0.,0.));
#644=CARTESIAN_POINT('',(13.8031324548507,0.,0.));
#645=CARTESIAN_POINT('',(13.8031324548507,0.,-3.81045145389735));
#646=CARTESIAN_POINT('',(13.8031324548507,0.,0.));
#647=CARTESIAN_POINT('',(13.7229596724121,0.,0.));
#648=CARTESIAN_POINT('',(13.7229596724121,0.,-17.0836179320847));
#649=CARTESIAN_POINT('',(13.3489969693772,0.,0.));
#650=CARTESIAN_POINT('',(13.3489969693772,0.,-6.3826569379209));
#651=CARTESIAN_POINT('',(13.7229596724121,-17.0756595991546,0.52139323283397));
#652=CARTESIAN_POINT('',(8.00000000000001,0.,0.));
#653=CARTESIAN_POINT('',(0.353851117235154,0.,0.));
#654=CARTESIAN_POINT('',(0.353851117235154,0.,-6.57403553856508));
#655=CARTESIAN_POINT('',(0.420871925654647,0.,0.));
#656=CARTESIAN_POINT('',(0.420871925654647,0.,-6.18123843396854));
#657=CARTESIAN_POINT('',(1.30004527801724,-5.48404321307722,0.955210962816348));
#658=CARTESIAN_POINT('',(1.17170530008246,-5.48852767567671,0.959692693602384));
#659=CARTESIAN_POINT('',(0.912885038411701,-5.54812498105035,0.968730896299983));
#660=CARTESIAN_POINT('',(0.595994445522718,-5.77618782746161,0.979796959648362));
#661=CARTESIAN_POINT('',(0.390730910363693,-6.10840803907987,0.986964920244712));
#662=CARTESIAN_POINT('',(0.349369386449118,-6.37091250358259,0.98840929648716));
#663=CARTESIAN_POINT('',(0.353851117235154,-6.49933071041922,0.988252790999457));
#664=CARTESIAN_POINT('',(8.00000000000001,0.,0.));
#665=CARTESIAN_POINT('',(0.73879334572328,0.,0.));
#666=CARTESIAN_POINT('',(0.73879334572328,0.,-17.5564368172097));
#667=CARTESIAN_POINT('',(0.353851117235154,-6.49933071041922,0.988252790999457));
#668=CARTESIAN_POINT('',(8.00000000000001,0.,0.));
#669=CARTESIAN_POINT('',(1.75346235735405,0.,0.));
#670=CARTESIAN_POINT('',(1.75346235735405,0.,-18.4999888226226));
#671=CARTESIAN_POINT('',(0.738793345723284,-17.5293530562871,0.974810312170784));
#672=CARTESIAN_POINT('',(0.74327507650932,-17.6577712631237,0.97465380668308));
#673=CARTESIAN_POINT('',(0.802836076814798,-17.9167492872094,0.972573890720715));
#674=CARTESIAN_POINT('',(1.03075999350208,-18.2338330389527,0.964614612164422));
#675=CARTESIAN_POINT('',(1.3627778255437,-18.4392216913293,0.953020293984547));
#676=CARTESIAN_POINT('',(1.62512237941928,-18.480608426925,0.943859020291242));
#677=CARTESIAN_POINT('',(1.75346235735405,-18.4761239643255,0.939377289505206));
#678=CARTESIAN_POINT('',(8.00000000000001,0.,0.));
#679=CARTESIAN_POINT('',(12.7767655116301,0.,0.));
#680=CARTESIAN_POINT('',(12.7767655116301,0.,-18.0994410158193));
#681=CARTESIAN_POINT('',(1.75346235735405,-18.4761239643255,0.939377289505206));
#682=CARTESIAN_POINT('',(8.00000000000001,0.,0.));
#683=CARTESIAN_POINT('',(12.7767655116301,-18.0909470964966,0.554435061017079));
#684=CARTESIAN_POINT('',(12.9051054895648,-18.0864626338971,0.549953330231042));
#685=CARTESIAN_POINT('',(13.1639257512356,-18.0268653285235,0.540915127533444));
#686=CARTESIAN_POINT('',(13.4808163441246,-17.7988024821122,0.529849064185064));
#687=CARTESIAN_POINT('',(13.6860798792836,-17.4665822704939,0.522681103588715));
#688=CARTESIAN_POINT('',(13.7274414031982,-17.2040778059912,0.521236727346267));
#689=CARTESIAN_POINT('',(13.7229596724121,-17.0756595991546,0.52139323283397));
#690=CARTESIAN_POINT('',(8.00000000000001,0.,0.));
#691=CARTESIAN_POINT('',(13.3489969693772,6.36998401016664,0.402011563777876));
#692=CARTESIAN_POINT('',(8.00000000000001,0.,0.));
#693=CARTESIAN_POINT('',(0.00174309140690831,0.,0.));
#694=CARTESIAN_POINT('',(0.00174309140690831,0.,-3.80527271287259));
#695=CARTESIAN_POINT('',(0.0017430914069101,3.75828107467645,0.596174289165159));
#696=CARTESIAN_POINT('',(8.00000000000001,0.,0.));
#697=CARTESIAN_POINT('',(0.964119434375598,-1.6695231263686,-0.00810295931868052));
#698=CARTESIAN_POINT('',(8.00000000000001,0.,0.));
#699=(
GEOMETRIC_REPRESENTATION_CONTEXT(3)
GLOBAL_UNCERTAINTY_ASSIGNED_CONTEXT((#700))
GLOBAL_UNIT_ASSIGNED_CONTEXT((#706,#702,#701))
REPRESENTATION_CONTEXT('ATUM-37XD3-KDR-1304-light',
'TOP_LEVEL_ASSEMBLY_PART')
);
#700=UNCERTAINTY_MEASURE_WITH_UNIT(LENGTH_MEASURE(2.E-5),#706,
'DISTANCE_ACCURACY_VALUE','Maximum Tolerance applied to model');
#701=(
NAMED_UNIT(*)
SI_UNIT($,.STERADIAN.)
SOLID_ANGLE_UNIT()
);
#702=(
CONVERSION_BASED_UNIT('DEGREE',#704)
NAMED_UNIT(#703)
PLANE_ANGLE_UNIT()
);
#703=DIMENSIONAL_EXPONENTS(0.,0.,0.,0.,0.,0.,0.);
#704=PLANE_ANGLE_MEASURE_WITH_UNIT(PLANE_ANGLE_MEASURE(0.0174532925),#705);
#705=(
NAMED_UNIT(*)
PLANE_ANGLE_UNIT()
SI_UNIT($,.RADIAN.)
);
#706=(
LENGTH_UNIT()
NAMED_UNIT(*)
SI_UNIT(.MILLI.,.METRE.)
);
ENDSEC;
END-ISO-10303-21;
