ISO-10303-21;
HEADER;
/* Generated by software containing ST-Developer
 * from STEP Tools, Inc. (www.steptools.com) 
 */
/* OPTION: using custom schema-name function */

FILE_DESCRIPTION(
/* description */ (''),
/* implementation_level */ '2;1');

FILE_NAME(
/* name */ 'ATUM-41XD4-WCM-06T308-light.stp',
/* time_stamp */ '2023-10-31T11:29:07+03:00',
/* author */ (''),
/* organization */ (''),
/* preprocessor_version */ 'ST-DEVELOPER v19.4',
/* originating_system */ 'SIEMENS PLM Software NX2306.3001',
/* authorisation */ '');

FILE_SCHEMA (('AUTOMOTIVE_DESIGN { 1 0 10303 214 3 1 1 1 }'));
ENDSEC;

DATA;
#10=SHAPE_REPRESENTATION_RELATIONSHIP('None',
'relationship between STP-ATUM 30XD4 WCM. 06T308-None and STP-ATUM 30X
D4 WCM. 06T308-None',#22,#11);
#11=ADVANCED_BREP_SHAPE_REPRESENTATION(
'STP-ATUM 30XD4 WCM. 06T308-None',(#84,#85),#738);
#12=SHAPE_DEFINITION_REPRESENTATION(#13,#22);
#13=PRODUCT_DEFINITION_SHAPE('','',#14);
#14=PRODUCT_DEFINITION(' ','',#16,#15);
#15=PRODUCT_DEFINITION_CONTEXT('part definition',#21,'design');
#16=PRODUCT_DEFINITION_FORMATION_WITH_SPECIFIED_SOURCE(' ',' ',#18,
 .NOT_KNOWN.);
#17=PRODUCT_RELATED_PRODUCT_CATEGORY('part','',(#18));
#18=PRODUCT('STP-ATUM 30XD4 WCM. 06T308','STP-ATUM 30XD4 WCM. 06T308',
' ',(#19));
#19=PRODUCT_CONTEXT(' ',#21,'mechanical');
#20=APPLICATION_PROTOCOL_DEFINITION('international standard',
'automotive_design',2010,#21);
#21=APPLICATION_CONTEXT(
'core data for automotive mechanical design processes');
#22=SHAPE_REPRESENTATION('STP-ATUM 30XD4 WCM. 06T308-None',(#434),#738);
#23=DRAUGHTING_PRE_DEFINED_COLOUR('yellow');
#24=SURFACE_OF_REVOLUTION('',#48,#36);
#25=SURFACE_OF_REVOLUTION('',#49,#37);
#26=SURFACE_OF_REVOLUTION('',#50,#38);
#27=SURFACE_OF_REVOLUTION('',#427,#39);
#28=SURFACE_OF_REVOLUTION('',#51,#40);
#29=SURFACE_OF_REVOLUTION('',#52,#41);
#30=SURFACE_OF_REVOLUTION('',#431,#42);
#31=SURFACE_OF_REVOLUTION('',#53,#43);
#32=SURFACE_OF_REVOLUTION('',#54,#44);
#33=SURFACE_OF_REVOLUTION('',#55,#45);
#34=SURFACE_OF_REVOLUTION('',#56,#46);
#35=SURFACE_OF_REVOLUTION('',#57,#47);
#36=AXIS1_PLACEMENT('',#697,#584);
#37=AXIS1_PLACEMENT('',#703,#590);
#38=AXIS1_PLACEMENT('',#707,#594);
#39=AXIS1_PLACEMENT('',#711,#599);
#40=AXIS1_PLACEMENT('',#715,#603);
#41=AXIS1_PLACEMENT('',#719,#607);
#42=AXIS1_PLACEMENT('',#723,#612);
#43=AXIS1_PLACEMENT('',#725,#614);
#44=AXIS1_PLACEMENT('',#729,#618);
#45=AXIS1_PLACEMENT('',#733,#622);
#46=AXIS1_PLACEMENT('',#735,#624);
#47=AXIS1_PLACEMENT('',#737,#626);
#48=LINE('',#696,#58);
#49=LINE('',#702,#59);
#50=LINE('',#706,#60);
#51=LINE('',#714,#61);
#52=LINE('',#718,#62);
#53=LINE('',#724,#63);
#54=LINE('',#728,#64);
#55=LINE('',#732,#65);
#56=LINE('',#734,#66);
#57=LINE('',#736,#67);
#58=VECTOR('',#583,1.1829406935342);
#59=VECTOR('',#589,4.92125972307384);
#60=VECTOR('',#593,5.56208085627866);
#61=VECTOR('',#602,5.56208085627869);
#62=VECTOR('',#606,5.56208085627864);
#63=VECTOR('',#613,5.56208085627877);
#64=VECTOR('',#617,1.35996595491539);
#65=VECTOR('',#621,4.12147947758433);
#66=VECTOR('',#623,5.56208085627863);
#67=VECTOR('',#625,5.56208085627863);
#68=PRESENTATION_LAYER_ASSIGNMENT('1','Layer 1',(#84,#85));
#69=STYLED_ITEM('',(#71),#84);
#70=STYLED_ITEM('',(#72),#85);
#71=PRESENTATION_STYLE_ASSIGNMENT((#73));
#72=PRESENTATION_STYLE_ASSIGNMENT((#74));
#73=SURFACE_STYLE_USAGE(.BOTH.,#75);
#74=SURFACE_STYLE_USAGE(.BOTH.,#76);
#75=SURFACE_SIDE_STYLE('',(#77));
#76=SURFACE_SIDE_STYLE('',(#78));
#77=SURFACE_STYLE_FILL_AREA(#79);
#78=SURFACE_STYLE_FILL_AREA(#80);
#79=FILL_AREA_STYLE('',(#81));
#80=FILL_AREA_STYLE('',(#82));
#81=FILL_AREA_STYLE_COLOUR('',#83);
#82=FILL_AREA_STYLE_COLOUR('',#23);
#83=COLOUR_RGB('smoke gray',0.694117647058824,0.694117647058824,0.694117647058824);
#84=MANIFOLD_SOLID_BREP('',#86);
#85=MANIFOLD_SOLID_BREP('',#87);
#86=CLOSED_SHELL('',(#106,#107,#108,#109,#110,#111,#112,#113,#114,#115,
#116,#117,#118,#119,#120,#121,#122,#123,#124,#125));
#87=CLOSED_SHELL('',(#126,#127,#128,#129,#130,#131,#132,#133,#134,#135,
#136,#137,#138,#139));
#88=FACE_OUTER_BOUND('',#232,.T.);
#89=FACE_OUTER_BOUND('',#245,.T.);
#90=FACE_OUTER_BOUND('',#246,.T.);
#91=FACE_OUTER_BOUND('',#247,.T.);
#92=PLANE('',#457);
#93=PLANE('',#460);
#94=PLANE('',#473);
#95=PLANE('',#475);
#96=PLANE('',#477);
#97=CONICAL_SURFACE('',#443,15.8103073792138,19.9999999999999);
#98=CONICAL_SURFACE('',#447,16.,15.0000000000009);
#99=CONICAL_SURFACE('',#455,16.2056692403838,82.0000000000023);
#100=CONICAL_SURFACE('',#466,21.9794518129686,6.70983680775694);
#101=CYLINDRICAL_SURFACE('',#439,15.7500000000005);
#102=CYLINDRICAL_SURFACE('',#445,16.);
#103=CYLINDRICAL_SURFACE('',#451,15.7499999999998);
#104=CYLINDRICAL_SURFACE('',#462,22.);
#105=CYLINDRICAL_SURFACE('',#470,20.);
#106=ADVANCED_FACE('',(#148,#149),#140,.T.);
#107=ADVANCED_FACE('',(#150,#151),#101,.T.);
#108=ADVANCED_FACE('',(#152,#153),#141,.F.);
#109=ADVANCED_FACE('',(#154,#155),#97,.T.);
#110=ADVANCED_FACE('',(#156,#157),#102,.T.);
#111=ADVANCED_FACE('',(#158,#159),#98,.T.);
#112=ADVANCED_FACE('',(#160,#161),#142,.F.);
#113=ADVANCED_FACE('',(#162,#163),#103,.T.);
#114=ADVANCED_FACE('',(#164,#165),#143,.F.);
#115=ADVANCED_FACE('',(#166,#167),#99,.F.);
#116=ADVANCED_FACE('',(#168,#169),#92,.F.);
#117=ADVANCED_FACE('',(#170,#171),#144,.T.);
#118=ADVANCED_FACE('',(#88),#93,.F.);
#119=ADVANCED_FACE('',(#172,#173),#104,.T.);
#120=ADVANCED_FACE('',(#174,#175),#145,.T.);
#121=ADVANCED_FACE('',(#176,#177),#100,.T.);
#122=ADVANCED_FACE('',(#178,#179),#146,.F.);
#123=ADVANCED_FACE('',(#180,#181),#105,.T.);
#124=ADVANCED_FACE('',(#182,#183),#147,.T.);
#125=ADVANCED_FACE('',(#89),#94,.F.);
#126=ADVANCED_FACE('',(#90),#95,.F.);
#127=ADVANCED_FACE('',(#91),#96,.T.);
#128=ADVANCED_FACE('',(#184,#185),#24,.T.);
#129=ADVANCED_FACE('',(#186,#187),#25,.T.);
#130=ADVANCED_FACE('',(#188,#189),#26,.T.);
#131=ADVANCED_FACE('',(#190,#191),#27,.T.);
#132=ADVANCED_FACE('',(#192,#193),#28,.T.);
#133=ADVANCED_FACE('',(#194,#195),#29,.T.);
#134=ADVANCED_FACE('',(#196,#197),#30,.T.);
#135=ADVANCED_FACE('',(#198,#199),#31,.T.);
#136=ADVANCED_FACE('',(#200,#201),#32,.T.);
#137=ADVANCED_FACE('',(#202,#203),#33,.T.);
#138=ADVANCED_FACE('',(#204,#205),#34,.T.);
#139=ADVANCED_FACE('',(#206,#207),#35,.T.);
#140=TOROIDAL_SURFACE('',#437,14.7500000000011,1.00000000000003);
#141=TOROIDAL_SURFACE('',#441,16.7499999999998,1.);
#142=TOROIDAL_SURFACE('',#449,16.1499999999998,0.399999999999999);
#143=TOROIDAL_SURFACE('',#453,16.1499999999998,0.399999999999972);
#144=TOROIDAL_SURFACE('',#459,21.3,0.800000000000011);
#145=TOROIDAL_SURFACE('',#464,19.,3.);
#146=TOROIDAL_SURFACE('',#468,25.,5.);
#147=TOROIDAL_SURFACE('',#472,18.2,1.8);
#148=FACE_BOUND('',#208,.T.);
#149=FACE_BOUND('',#209,.T.);
#150=FACE_BOUND('',#210,.T.);
#151=FACE_BOUND('',#211,.T.);
#152=FACE_BOUND('',#212,.T.);
#153=FACE_BOUND('',#213,.T.);
#154=FACE_BOUND('',#214,.T.);
#155=FACE_BOUND('',#215,.T.);
#156=FACE_BOUND('',#216,.T.);
#157=FACE_BOUND('',#217,.T.);
#158=FACE_BOUND('',#218,.T.);
#159=FACE_BOUND('',#219,.T.);
#160=FACE_BOUND('',#220,.T.);
#161=FACE_BOUND('',#221,.T.);
#162=FACE_BOUND('',#222,.T.);
#163=FACE_BOUND('',#223,.T.);
#164=FACE_BOUND('',#224,.T.);
#165=FACE_BOUND('',#225,.T.);
#166=FACE_BOUND('',#226,.T.);
#167=FACE_BOUND('',#227,.T.);
#168=FACE_BOUND('',#228,.T.);
#169=FACE_BOUND('',#229,.T.);
#170=FACE_BOUND('',#230,.T.);
#171=FACE_BOUND('',#231,.T.);
#172=FACE_BOUND('',#233,.T.);
#173=FACE_BOUND('',#234,.T.);
#174=FACE_BOUND('',#235,.T.);
#175=FACE_BOUND('',#236,.T.);
#176=FACE_BOUND('',#237,.T.);
#177=FACE_BOUND('',#238,.T.);
#178=FACE_BOUND('',#239,.T.);
#179=FACE_BOUND('',#240,.T.);
#180=FACE_BOUND('',#241,.T.);
#181=FACE_BOUND('',#242,.T.);
#182=FACE_BOUND('',#243,.T.);
#183=FACE_BOUND('',#244,.T.);
#184=FACE_BOUND('',#248,.T.);
#185=FACE_BOUND('',#249,.T.);
#186=FACE_BOUND('',#250,.T.);
#187=FACE_BOUND('',#251,.T.);
#188=FACE_BOUND('',#252,.T.);
#189=FACE_BOUND('',#253,.T.);
#190=FACE_BOUND('',#254,.T.);
#191=FACE_BOUND('',#255,.T.);
#192=FACE_BOUND('',#256,.T.);
#193=FACE_BOUND('',#257,.T.);
#194=FACE_BOUND('',#258,.T.);
#195=FACE_BOUND('',#259,.T.);
#196=FACE_BOUND('',#260,.T.);
#197=FACE_BOUND('',#261,.T.);
#198=FACE_BOUND('',#262,.T.);
#199=FACE_BOUND('',#263,.T.);
#200=FACE_BOUND('',#264,.T.);
#201=FACE_BOUND('',#265,.T.);
#202=FACE_BOUND('',#266,.T.);
#203=FACE_BOUND('',#267,.T.);
#204=FACE_BOUND('',#268,.T.);
#205=FACE_BOUND('',#269,.T.);
#206=FACE_BOUND('',#270,.T.);
#207=FACE_BOUND('',#271,.T.);
#208=EDGE_LOOP('',(#272));
#209=EDGE_LOOP('',(#273));
#210=EDGE_LOOP('',(#274));
#211=EDGE_LOOP('',(#275));
#212=EDGE_LOOP('',(#276));
#213=EDGE_LOOP('',(#277));
#214=EDGE_LOOP('',(#278));
#215=EDGE_LOOP('',(#279));
#216=EDGE_LOOP('',(#280));
#217=EDGE_LOOP('',(#281));
#218=EDGE_LOOP('',(#282));
#219=EDGE_LOOP('',(#283));
#220=EDGE_LOOP('',(#284));
#221=EDGE_LOOP('',(#285));
#222=EDGE_LOOP('',(#286));
#223=EDGE_LOOP('',(#287));
#224=EDGE_LOOP('',(#288));
#225=EDGE_LOOP('',(#289));
#226=EDGE_LOOP('',(#290));
#227=EDGE_LOOP('',(#291));
#228=EDGE_LOOP('',(#292));
#229=EDGE_LOOP('',(#293));
#230=EDGE_LOOP('',(#294));
#231=EDGE_LOOP('',(#295));
#232=EDGE_LOOP('',(#296));
#233=EDGE_LOOP('',(#297));
#234=EDGE_LOOP('',(#298));
#235=EDGE_LOOP('',(#299));
#236=EDGE_LOOP('',(#300));
#237=EDGE_LOOP('',(#301));
#238=EDGE_LOOP('',(#302));
#239=EDGE_LOOP('',(#303));
#240=EDGE_LOOP('',(#304));
#241=EDGE_LOOP('',(#305));
#242=EDGE_LOOP('',(#306));
#243=EDGE_LOOP('',(#307));
#244=EDGE_LOOP('',(#308));
#245=EDGE_LOOP('',(#309));
#246=EDGE_LOOP('',(#310));
#247=EDGE_LOOP('',(#311));
#248=EDGE_LOOP('',(#312));
#249=EDGE_LOOP('',(#313));
#250=EDGE_LOOP('',(#314));
#251=EDGE_LOOP('',(#315));
#252=EDGE_LOOP('',(#316));
#253=EDGE_LOOP('',(#317));
#254=EDGE_LOOP('',(#318));
#255=EDGE_LOOP('',(#319));
#256=EDGE_LOOP('',(#320));
#257=EDGE_LOOP('',(#321));
#258=EDGE_LOOP('',(#322));
#259=EDGE_LOOP('',(#323));
#260=EDGE_LOOP('',(#324));
#261=EDGE_LOOP('',(#325));
#262=EDGE_LOOP('',(#326));
#263=EDGE_LOOP('',(#327));
#264=EDGE_LOOP('',(#328));
#265=EDGE_LOOP('',(#329));
#266=EDGE_LOOP('',(#330));
#267=EDGE_LOOP('',(#331));
#268=EDGE_LOOP('',(#332));
#269=EDGE_LOOP('',(#333));
#270=EDGE_LOOP('',(#334));
#271=EDGE_LOOP('',(#335));
#272=ORIENTED_EDGE('',*,*,#368,.T.);
#273=ORIENTED_EDGE('',*,*,#369,.T.);
#274=ORIENTED_EDGE('',*,*,#370,.T.);
#275=ORIENTED_EDGE('',*,*,#368,.F.);
#276=ORIENTED_EDGE('',*,*,#371,.T.);
#277=ORIENTED_EDGE('',*,*,#370,.F.);
#278=ORIENTED_EDGE('',*,*,#372,.T.);
#279=ORIENTED_EDGE('',*,*,#371,.F.);
#280=ORIENTED_EDGE('',*,*,#373,.T.);
#281=ORIENTED_EDGE('',*,*,#372,.F.);
#282=ORIENTED_EDGE('',*,*,#374,.T.);
#283=ORIENTED_EDGE('',*,*,#373,.F.);
#284=ORIENTED_EDGE('',*,*,#375,.T.);
#285=ORIENTED_EDGE('',*,*,#374,.F.);
#286=ORIENTED_EDGE('',*,*,#376,.T.);
#287=ORIENTED_EDGE('',*,*,#375,.F.);
#288=ORIENTED_EDGE('',*,*,#377,.T.);
#289=ORIENTED_EDGE('',*,*,#376,.F.);
#290=ORIENTED_EDGE('',*,*,#378,.T.);
#291=ORIENTED_EDGE('',*,*,#377,.F.);
#292=ORIENTED_EDGE('',*,*,#379,.T.);
#293=ORIENTED_EDGE('',*,*,#378,.F.);
#294=ORIENTED_EDGE('',*,*,#380,.T.);
#295=ORIENTED_EDGE('',*,*,#379,.F.);
#296=ORIENTED_EDGE('',*,*,#369,.F.);
#297=ORIENTED_EDGE('',*,*,#381,.T.);
#298=ORIENTED_EDGE('',*,*,#380,.F.);
#299=ORIENTED_EDGE('',*,*,#382,.T.);
#300=ORIENTED_EDGE('',*,*,#381,.F.);
#301=ORIENTED_EDGE('',*,*,#383,.T.);
#302=ORIENTED_EDGE('',*,*,#382,.F.);
#303=ORIENTED_EDGE('',*,*,#384,.T.);
#304=ORIENTED_EDGE('',*,*,#383,.F.);
#305=ORIENTED_EDGE('',*,*,#384,.F.);
#306=ORIENTED_EDGE('',*,*,#385,.T.);
#307=ORIENTED_EDGE('',*,*,#386,.T.);
#308=ORIENTED_EDGE('',*,*,#385,.F.);
#309=ORIENTED_EDGE('',*,*,#386,.F.);
#310=ORIENTED_EDGE('',*,*,#387,.F.);
#311=ORIENTED_EDGE('',*,*,#388,.T.);
#312=ORIENTED_EDGE('',*,*,#389,.T.);
#313=ORIENTED_EDGE('',*,*,#390,.F.);
#314=ORIENTED_EDGE('',*,*,#391,.F.);
#315=ORIENTED_EDGE('',*,*,#392,.F.);
#316=ORIENTED_EDGE('',*,*,#393,.F.);
#317=ORIENTED_EDGE('',*,*,#391,.T.);
#318=ORIENTED_EDGE('',*,*,#394,.F.);
#319=ORIENTED_EDGE('',*,*,#393,.T.);
#320=ORIENTED_EDGE('',*,*,#395,.F.);
#321=ORIENTED_EDGE('',*,*,#394,.T.);
#322=ORIENTED_EDGE('',*,*,#396,.F.);
#323=ORIENTED_EDGE('',*,*,#395,.T.);
#324=ORIENTED_EDGE('',*,*,#397,.F.);
#325=ORIENTED_EDGE('',*,*,#396,.T.);
#326=ORIENTED_EDGE('',*,*,#389,.F.);
#327=ORIENTED_EDGE('',*,*,#397,.T.);
#328=ORIENTED_EDGE('',*,*,#398,.F.);
#329=ORIENTED_EDGE('',*,*,#390,.T.);
#330=ORIENTED_EDGE('',*,*,#399,.T.);
#331=ORIENTED_EDGE('',*,*,#392,.T.);
#332=ORIENTED_EDGE('',*,*,#399,.F.);
#333=ORIENTED_EDGE('',*,*,#387,.T.);
#334=ORIENTED_EDGE('',*,*,#388,.F.);
#335=ORIENTED_EDGE('',*,*,#398,.T.);
#336=VERTEX_POINT('',#629);
#337=VERTEX_POINT('',#631);
#338=VERTEX_POINT('',#634);
#339=VERTEX_POINT('',#637);
#340=VERTEX_POINT('',#640);
#341=VERTEX_POINT('',#643);
#342=VERTEX_POINT('',#646);
#343=VERTEX_POINT('',#649);
#344=VERTEX_POINT('',#652);
#345=VERTEX_POINT('',#655);
#346=VERTEX_POINT('',#658);
#347=VERTEX_POINT('',#661);
#348=VERTEX_POINT('',#664);
#349=VERTEX_POINT('',#668);
#350=VERTEX_POINT('',#671);
#351=VERTEX_POINT('',#674);
#352=VERTEX_POINT('',#677);
#353=VERTEX_POINT('',#680);
#354=VERTEX_POINT('',#683);
#355=VERTEX_POINT('',#687);
#356=VERTEX_POINT('',#690);
#357=VERTEX_POINT('',#693);
#358=VERTEX_POINT('',#695);
#359=VERTEX_POINT('',#699);
#360=VERTEX_POINT('',#701);
#361=VERTEX_POINT('',#705);
#362=VERTEX_POINT('',#709);
#363=VERTEX_POINT('',#713);
#364=VERTEX_POINT('',#717);
#365=VERTEX_POINT('',#721);
#366=VERTEX_POINT('',#727);
#367=VERTEX_POINT('',#731);
#368=EDGE_CURVE('',#336,#336,#400,.T.);
#369=EDGE_CURVE('',#337,#337,#401,.T.);
#370=EDGE_CURVE('',#338,#338,#402,.T.);
#371=EDGE_CURVE('',#339,#339,#403,.T.);
#372=EDGE_CURVE('',#340,#340,#404,.T.);
#373=EDGE_CURVE('',#341,#341,#405,.T.);
#374=EDGE_CURVE('',#342,#342,#406,.T.);
#375=EDGE_CURVE('',#343,#343,#407,.T.);
#376=EDGE_CURVE('',#344,#344,#408,.T.);
#377=EDGE_CURVE('',#345,#345,#409,.T.);
#378=EDGE_CURVE('',#346,#346,#410,.T.);
#379=EDGE_CURVE('',#347,#347,#411,.T.);
#380=EDGE_CURVE('',#348,#348,#412,.T.);
#381=EDGE_CURVE('',#349,#349,#413,.T.);
#382=EDGE_CURVE('',#350,#350,#414,.T.);
#383=EDGE_CURVE('',#351,#351,#415,.T.);
#384=EDGE_CURVE('',#352,#352,#416,.T.);
#385=EDGE_CURVE('',#353,#353,#417,.T.);
#386=EDGE_CURVE('',#354,#354,#418,.T.);
#387=EDGE_CURVE('',#355,#355,#419,.T.);
#388=EDGE_CURVE('',#356,#356,#420,.T.);
#389=EDGE_CURVE('',#357,#357,#421,.T.);
#390=EDGE_CURVE('',#358,#358,#422,.T.);
#391=EDGE_CURVE('',#359,#359,#423,.T.);
#392=EDGE_CURVE('',#360,#360,#424,.T.);
#393=EDGE_CURVE('',#361,#361,#425,.T.);
#394=EDGE_CURVE('',#362,#362,#426,.T.);
#395=EDGE_CURVE('',#363,#363,#428,.T.);
#396=EDGE_CURVE('',#364,#364,#429,.T.);
#397=EDGE_CURVE('',#365,#365,#430,.T.);
#398=EDGE_CURVE('',#366,#366,#432,.T.);
#399=EDGE_CURVE('',#367,#367,#433,.T.);
#400=CIRCLE('',#435,15.7500000000012);
#401=CIRCLE('',#436,14.7500000000011);
#402=CIRCLE('',#438,15.7499999999998);
#403=CIRCLE('',#440,15.8103073792138);
#404=CIRCLE('',#442,16.);
#405=CIRCLE('',#444,16.);
#406=CIRCLE('',#446,15.7636296694841);
#407=CIRCLE('',#448,15.7499999999998);
#408=CIRCLE('',#450,15.7499999999998);
#409=CIRCLE('',#452,16.2056692403838);
#410=CIRCLE('',#454,17.);
#411=CIRCLE('',#456,21.3);
#412=CIRCLE('',#458,22.);
#413=CIRCLE('',#461,22.);
#414=CIRCLE('',#463,21.9794518129686);
#415=CIRCLE('',#465,20.0342469783856);
#416=CIRCLE('',#467,20.);
#417=CIRCLE('',#469,20.);
#418=CIRCLE('',#471,18.2);
#419=CIRCLE('',#474,0.100000000000002);
#420=CIRCLE('',#476,5.48443435091315);
#421=CIRCLE('',#478,10.2430851979967);
#422=CIRCLE('',#479,9.83144999121851);
#423=CIRCLE('',#480,14.3574498220397);
#424=CIRCLE('',#481,9.53583939198614);
#425=CIRCLE('',#482,19.8331275895981);
#426=CIRCLE('',#483,20.4538831260247);
#427=CIRCLE('',#484,0.800000000000003);
#428=CIRCLE('',#485,18.5969231556308);
#429=CIRCLE('',#486,15.063082707171);
#430=CIRCLE('',#487,13.8403958505051);
#431=CIRCLE('',#488,0.800000000000003);
#432=CIRCLE('',#489,9.29475019777774);
#433=CIRCLE('',#490,5.52437513559382);
#434=AXIS2_PLACEMENT_3D('',#627,#491,#492);
#435=AXIS2_PLACEMENT_3D('',#628,#493,#494);
#436=AXIS2_PLACEMENT_3D('',#630,#495,#496);
#437=AXIS2_PLACEMENT_3D('',#632,#497,#498);
#438=AXIS2_PLACEMENT_3D('',#633,#499,#500);
#439=AXIS2_PLACEMENT_3D('',#635,#501,#502);
#440=AXIS2_PLACEMENT_3D('',#636,#503,#504);
#441=AXIS2_PLACEMENT_3D('',#638,#505,#506);
#442=AXIS2_PLACEMENT_3D('',#639,#507,#508);
#443=AXIS2_PLACEMENT_3D('',#641,#509,#510);
#444=AXIS2_PLACEMENT_3D('',#642,#511,#512);
#445=AXIS2_PLACEMENT_3D('',#644,#513,#514);
#446=AXIS2_PLACEMENT_3D('',#645,#515,#516);
#447=AXIS2_PLACEMENT_3D('',#647,#517,#518);
#448=AXIS2_PLACEMENT_3D('',#648,#519,#520);
#449=AXIS2_PLACEMENT_3D('',#650,#521,#522);
#450=AXIS2_PLACEMENT_3D('',#651,#523,#524);
#451=AXIS2_PLACEMENT_3D('',#653,#525,#526);
#452=AXIS2_PLACEMENT_3D('',#654,#527,#528);
#453=AXIS2_PLACEMENT_3D('',#656,#529,#530);
#454=AXIS2_PLACEMENT_3D('',#657,#531,#532);
#455=AXIS2_PLACEMENT_3D('',#659,#533,#534);
#456=AXIS2_PLACEMENT_3D('',#660,#535,#536);
#457=AXIS2_PLACEMENT_3D('',#662,#537,#538);
#458=AXIS2_PLACEMENT_3D('',#663,#539,#540);
#459=AXIS2_PLACEMENT_3D('',#665,#541,#542);
#460=AXIS2_PLACEMENT_3D('',#666,#543,#544);
#461=AXIS2_PLACEMENT_3D('',#667,#545,#546);
#462=AXIS2_PLACEMENT_3D('',#669,#547,#548);
#463=AXIS2_PLACEMENT_3D('',#670,#549,#550);
#464=AXIS2_PLACEMENT_3D('',#672,#551,#552);
#465=AXIS2_PLACEMENT_3D('',#673,#553,#554);
#466=AXIS2_PLACEMENT_3D('',#675,#555,#556);
#467=AXIS2_PLACEMENT_3D('',#676,#557,#558);
#468=AXIS2_PLACEMENT_3D('',#678,#559,#560);
#469=AXIS2_PLACEMENT_3D('',#679,#561,#562);
#470=AXIS2_PLACEMENT_3D('',#681,#563,#564);
#471=AXIS2_PLACEMENT_3D('',#682,#565,#566);
#472=AXIS2_PLACEMENT_3D('',#684,#567,#568);
#473=AXIS2_PLACEMENT_3D('',#685,#569,#570);
#474=AXIS2_PLACEMENT_3D('',#686,#571,#572);
#475=AXIS2_PLACEMENT_3D('',#688,#573,#574);
#476=AXIS2_PLACEMENT_3D('',#689,#575,#576);
#477=AXIS2_PLACEMENT_3D('',#691,#577,#578);
#478=AXIS2_PLACEMENT_3D('',#692,#579,#580);
#479=AXIS2_PLACEMENT_3D('',#694,#581,#582);
#480=AXIS2_PLACEMENT_3D('',#698,#585,#586);
#481=AXIS2_PLACEMENT_3D('',#700,#587,#588);
#482=AXIS2_PLACEMENT_3D('',#704,#591,#592);
#483=AXIS2_PLACEMENT_3D('',#708,#595,#596);
#484=AXIS2_PLACEMENT_3D('',#710,#597,#598);
#485=AXIS2_PLACEMENT_3D('',#712,#600,#601);
#486=AXIS2_PLACEMENT_3D('',#716,#604,#605);
#487=AXIS2_PLACEMENT_3D('',#720,#608,#609);
#488=AXIS2_PLACEMENT_3D('',#722,#610,#611);
#489=AXIS2_PLACEMENT_3D('',#726,#615,#616);
#490=AXIS2_PLACEMENT_3D('',#730,#619,#620);
#491=DIRECTION('',(0.,0.,1.));
#492=DIRECTION('',(1.,0.,0.));
#493=DIRECTION('',(1.,0.,0.));
#494=DIRECTION('',(0.,0.,1.));
#495=DIRECTION('',(-1.,0.,0.));
#496=DIRECTION('',(0.,0.,1.));
#497=DIRECTION('',(-1.,0.,0.));
#498=DIRECTION('',(0.,0.,1.));
#499=DIRECTION('',(1.,0.,0.));
#500=DIRECTION('',(0.,0.,1.));
#501=DIRECTION('',(-1.,0.,0.));
#502=DIRECTION('',(0.,0.,1.));
#503=DIRECTION('',(1.,0.,0.));
#504=DIRECTION('',(0.,0.,1.));
#505=DIRECTION('',(-1.,0.,0.));
#506=DIRECTION('',(0.,0.,1.));
#507=DIRECTION('',(1.,0.,0.));
#508=DIRECTION('',(0.,0.,1.));
#509=DIRECTION('',(-1.,0.,0.));
#510=DIRECTION('',(-7.30831956144377E-17,0.,1.));
#511=DIRECTION('',(1.,0.,0.));
#512=DIRECTION('',(0.,0.,1.));
#513=DIRECTION('',(-1.,0.,0.));
#514=DIRECTION('',(0.,0.,1.));
#515=DIRECTION('',(1.,0.,0.));
#516=DIRECTION('',(0.,0.,1.));
#517=DIRECTION('',(1.,0.,0.));
#518=DIRECTION('',(1.95496774461579E-16,0.,-1.));
#519=DIRECTION('',(1.,0.,0.));
#520=DIRECTION('',(0.,0.,1.));
#521=DIRECTION('',(-1.,0.,0.));
#522=DIRECTION('',(0.,0.,1.));
#523=DIRECTION('',(1.,0.,0.));
#524=DIRECTION('',(0.,0.,1.));
#525=DIRECTION('',(-1.,0.,0.));
#526=DIRECTION('',(0.,0.,1.));
#527=DIRECTION('',(1.,0.,0.));
#528=DIRECTION('',(0.,0.,1.));
#529=DIRECTION('',(-1.,0.,0.));
#530=DIRECTION('',(0.,0.,1.));
#531=DIRECTION('',(1.,0.,0.));
#532=DIRECTION('',(0.,0.,1.));
#533=DIRECTION('',(1.,0.,0.));
#534=DIRECTION('',(3.89192767256127E-18,0.,-1.));
#535=DIRECTION('',(1.,0.,0.));
#536=DIRECTION('',(0.,0.,1.));
#537=DIRECTION('',(-1.,0.,0.));
#538=DIRECTION('',(0.,0.,1.));
#539=DIRECTION('',(1.,0.,0.));
#540=DIRECTION('',(0.,0.,1.));
#541=DIRECTION('',(-1.,0.,0.));
#542=DIRECTION('',(0.,0.,1.));
#543=DIRECTION('',(-1.,0.,0.));
#544=DIRECTION('',(0.,0.,1.));
#545=DIRECTION('',(1.,0.,0.));
#546=DIRECTION('',(0.,0.,1.));
#547=DIRECTION('',(-1.,0.,0.));
#548=DIRECTION('',(0.,0.,1.));
#549=DIRECTION('',(1.,0.,0.));
#550=DIRECTION('',(0.,0.,1.));
#551=DIRECTION('',(-1.,0.,0.));
#552=DIRECTION('',(0.,0.,1.));
#553=DIRECTION('',(1.,0.,0.));
#554=DIRECTION('',(0.,0.,1.));
#555=DIRECTION('',(1.,0.,0.));
#556=DIRECTION('',(-7.95137699541527E-16,0.,-1.));
#557=DIRECTION('',(1.,0.,0.));
#558=DIRECTION('',(0.,0.,1.));
#559=DIRECTION('',(-1.,0.,0.));
#560=DIRECTION('',(0.,0.,1.));
#561=DIRECTION('',(1.,0.,0.));
#562=DIRECTION('',(0.,0.,-1.));
#563=DIRECTION('',(-1.,0.,0.));
#564=DIRECTION('',(0.,0.,1.));
#565=DIRECTION('',(1.,0.,0.));
#566=DIRECTION('',(0.,0.,-1.));
#567=DIRECTION('',(1.,0.,0.));
#568=DIRECTION('',(0.,0.,-1.));
#569=DIRECTION('',(1.,0.,0.));
#570=DIRECTION('',(0.,0.,-1.));
#571=DIRECTION('',(1.,0.,0.));
#572=DIRECTION('',(0.,0.,-1.));
#573=DIRECTION('',(1.,0.,0.));
#574=DIRECTION('',(0.,0.,-1.));
#575=DIRECTION('',(1.,0.,0.));
#576=DIRECTION('',(0.,0.,-1.));
#577=DIRECTION('',(1.,0.,0.));
#578=DIRECTION('',(0.,0.,-1.));
#579=DIRECTION('',(1.,0.,0.));
#580=DIRECTION('',(0.,0.,-1.));
#581=DIRECTION('',(1.,0.,0.));
#582=DIRECTION('',(0.,0.,-1.));
#583=DIRECTION('',(-0.936855428999056,0.349716892864779,1.55941950575798E-16));
#584=DIRECTION('',(1.,0.,0.));
#585=DIRECTION('',(1.,0.,0.));
#586=DIRECTION('',(0.,0.,-1.));
#587=DIRECTION('',(-1.,0.,0.));
#588=DIRECTION('',(0.,0.,-1.));
#589=DIRECTION('',(-0.181720669469518,-0.983350191075158,-4.28840364083446E-16));
#590=DIRECTION('',(1.,0.,0.));
#591=DIRECTION('',(1.,0.,0.));
#592=DIRECTION('',(0.,0.,-1.));
#593=DIRECTION('',(0.165564001146068,-0.98619904761894,-2.33912925863698E-16));
#594=DIRECTION('',(1.,0.,0.));
#595=DIRECTION('',(1.,0.,0.));
#596=DIRECTION('',(0.,0.,-1.));
#597=DIRECTION('',(-2.04755498844022E-17,-5.15466656965442E-17,1.));
#598=DIRECTION('',(0.942466581022128,0.334300379384261,3.6529591392449E-17));
#599=DIRECTION('',(1.,0.,0.));
#600=DIRECTION('',(1.,0.,0.));
#601=DIRECTION('',(0.,0.,-1.));
#602=DIRECTION('',(0.942466581022129,0.334300379384257,1.55941950575799E-16));
#603=DIRECTION('',(1.,0.,0.));
#604=DIRECTION('',(1.,0.,0.));
#605=DIRECTION('',(0.,0.,-1.));
#606=DIRECTION('',(0.771291427852985,0.636482154754164,7.79709752878997E-17));
#607=DIRECTION('',(1.,0.,0.));
#608=DIRECTION('',(1.,0.,0.));
#609=DIRECTION('',(0.,0.,-1.));
#610=DIRECTION('',(-2.04755498844022E-17,-5.15466656965442E-17,1.));
#611=DIRECTION('',(0.942466581022128,0.334300379384261,3.6529591392449E-17));
#612=DIRECTION('',(1.,0.,0.));
#613=DIRECTION('',(-0.760745911552606,0.649049811690901,2.33912925863699E-16));
#614=DIRECTION('',(1.,0.,0.));
#615=DIRECTION('',(1.,0.,0.));
#616=DIRECTION('',(0.,0.,-1.));
#617=DIRECTION('',(0.918825654550337,-0.394122802371994,-0.0206551008371251));
#618=DIRECTION('',(1.,0.,0.));
#619=DIRECTION('',(1.,0.,0.));
#620=DIRECTION('',(0.,0.,-1.));
#621=DIRECTION('',(0.229115446685139,0.972065246410782,0.0509437808826114));
#622=DIRECTION('',(1.,0.,0.));
#623=DIRECTION('',(-0.117624058581536,0.991697244356274,0.0519726502978238));
#624=DIRECTION('',(1.,0.,0.));
#625=DIRECTION('',(0.728430760604692,-0.684180492998034,-0.0358563802668033));
#626=DIRECTION('',(1.,0.,0.));
#627=CARTESIAN_POINT('',(0.,0.,0.));
#628=CARTESIAN_POINT('',(250.,0.,0.));
#629=CARTESIAN_POINT('',(250.,0.,15.7500000000012));
#630=CARTESIAN_POINT('',(251.,0.,0.));
#631=CARTESIAN_POINT('',(251.,0.,14.7500000000011));
#632=CARTESIAN_POINT('',(250.,0.,0.));
#633=CARTESIAN_POINT('',(248.176326980709,0.,0.));
#634=CARTESIAN_POINT('',(248.176326980709,0.,15.7499999999998));
#635=CARTESIAN_POINT('',(0.,0.,0.));
#636=CARTESIAN_POINT('',(247.834306837383,0.,0.));
#637=CARTESIAN_POINT('',(247.834306837383,0.,15.8103073792138));
#638=CARTESIAN_POINT('',(248.176326980709,0.,0.));
#639=CARTESIAN_POINT('',(247.313130645136,0.,0.));
#640=CARTESIAN_POINT('',(247.313130645136,0.,16.));
#641=CARTESIAN_POINT('',(247.834306837383,0.,0.));
#642=CARTESIAN_POINT('',(193.,0.,0.));
#643=CARTESIAN_POINT('',(193.,0.,16.));
#644=CARTESIAN_POINT('',(0.,0.,0.));
#645=CARTESIAN_POINT('',(192.117853917113,0.,0.));
#646=CARTESIAN_POINT('',(192.117853917113,0.,15.7636296694841));
#647=CARTESIAN_POINT('',(193.,0.,0.));
#648=CARTESIAN_POINT('',(192.014326299072,0.,0.));
#649=CARTESIAN_POINT('',(192.014326299072,0.,15.7499999999998));
#650=CARTESIAN_POINT('',(192.014326299072,0.,0.));
#651=CARTESIAN_POINT('',(191.28447131951,0.,0.));
#652=CARTESIAN_POINT('',(191.28447131951,0.,15.7499999999998));
#653=CARTESIAN_POINT('',(0.,0.,0.));
#654=CARTESIAN_POINT('',(190.888364092014,0.,0.));
#655=CARTESIAN_POINT('',(190.888364092014,0.,16.2056692403838));
#656=CARTESIAN_POINT('',(191.28447131951,0.,0.));
#657=CARTESIAN_POINT('',(191.,0.,0.));
#658=CARTESIAN_POINT('',(191.,0.,17.));
#659=CARTESIAN_POINT('',(190.888364092014,0.,0.));
#660=CARTESIAN_POINT('',(191.,0.,0.));
#661=CARTESIAN_POINT('',(191.,0.,21.3));
#662=CARTESIAN_POINT('',(191.,17.,0.));
#663=CARTESIAN_POINT('',(190.587298334621,0.,0.));
#664=CARTESIAN_POINT('',(190.587298334621,0.,22.));
#665=CARTESIAN_POINT('',(190.2,0.,0.));
#666=CARTESIAN_POINT('',(251.,22.5,0.));
#667=CARTESIAN_POINT('',(186.175864152936,0.,0.));
#668=CARTESIAN_POINT('',(186.175864152936,0.,22.));
#669=CARTESIAN_POINT('',(0.,0.,0.));
#670=CARTESIAN_POINT('',(185.825340410233,0.,0.));
#671=CARTESIAN_POINT('',(185.825340410233,0.,21.9794518129686));
#672=CARTESIAN_POINT('',(186.175864152936,0.,0.));
#673=CARTESIAN_POINT('',(169.291099316278,0.,0.));
#674=CARTESIAN_POINT('',(169.291099316278,0.,20.0342469783856));
#675=CARTESIAN_POINT('',(185.825340410233,0.,0.));
#676=CARTESIAN_POINT('',(168.706893078441,0.,0.));
#677=CARTESIAN_POINT('',(168.706893078441,0.,20.));
#678=CARTESIAN_POINT('',(168.706893078441,0.,0.));
#679=CARTESIAN_POINT('',(3.1,0.,0.));
#680=CARTESIAN_POINT('',(3.1,0.,-20.));
#681=CARTESIAN_POINT('',(0.,0.,0.));
#682=CARTESIAN_POINT('',(1.3,0.,0.));
#683=CARTESIAN_POINT('',(1.3,0.,-18.2));
#684=CARTESIAN_POINT('',(3.1,0.,0.));
#685=CARTESIAN_POINT('',(1.3,17.8097122105092,0.));
#686=CARTESIAN_POINT('',(0.654234524474148,0.,0.));
#687=CARTESIAN_POINT('',(0.654234524474148,0.,-0.100000000000002));
#688=CARTESIAN_POINT('',(0.654234524474148,0.,0.));
#689=CARTESIAN_POINT('',(11.5309823571882,0.,0.));
#690=CARTESIAN_POINT('',(11.5309823571882,0.,-5.48443435091315));
#691=CARTESIAN_POINT('',(11.5309823571882,0.,0.));
#692=CARTESIAN_POINT('',(7.33806437073491,0.,0.));
#693=CARTESIAN_POINT('',(7.33806437073491,0.,-10.2430851979967));
#694=CARTESIAN_POINT('',(6.22981995981307,0.,0.));
#695=CARTESIAN_POINT('',(6.22981995981307,0.,-9.83144999121851));
#696=CARTESIAN_POINT('',(7.33806437073491,-10.1941549121749,1.));
#697=CARTESIAN_POINT('',(3.1,0.,0.));
#698=CARTESIAN_POINT('',(0.0500000000000066,0.,0.));
#699=CARTESIAN_POINT('',(0.0500000000000066,0.,-14.3574498220397));
#700=CARTESIAN_POINT('',(0.944294611510359,0.,0.));
#701=CARTESIAN_POINT('',(0.944294611510359,0.,-9.53583939198614));
#702=CARTESIAN_POINT('',(0.944294611510359,-9.48326066866005,1.));
#703=CARTESIAN_POINT('',(3.1,0.,0.));
#704=CARTESIAN_POINT('',(0.970880361263447,0.,0.));
#705=CARTESIAN_POINT('',(0.970880361263447,0.,-19.8331275895981));
#706=CARTESIAN_POINT('',(0.0500000000000067,-14.3225823576752,1.));
#707=CARTESIAN_POINT('',(3.1,0.,0.));
#708=CARTESIAN_POINT('',(2.02727990286604,0.,0.));
#709=CARTESIAN_POINT('',(2.02727990286604,0.,-20.4538831260247));
#710=CARTESIAN_POINT('',(1.75983959935863,-19.67545,1.));
#711=CARTESIAN_POINT('',(3.1,0.,0.));
#712=CARTESIAN_POINT('',(7.2693552308516,0.,0.));
#713=CARTESIAN_POINT('',(7.2693552308516,0.,-18.5969231556308));
#714=CARTESIAN_POINT('',(2.02727990286599,-20.4294232648176,0.999999999999999));
#715=CARTESIAN_POINT('',(3.1,0.,0.));
#716=CARTESIAN_POINT('',(11.5593405163245,0.,0.));
#717=CARTESIAN_POINT('',(11.5593405163245,0.,-15.063082707171));
#718=CARTESIAN_POINT('',(7.2693552308516,-18.5700175243977,0.999999999999999));
#719=CARTESIAN_POINT('',(3.1,0.,0.));
#720=CARTESIAN_POINT('',(11.569394641874,0.,0.));
#721=CARTESIAN_POINT('',(11.569394641874,0.,-13.8403958505051));
#722=CARTESIAN_POINT('',(11.0501547925213,-14.4128191737943,1.));
#723=CARTESIAN_POINT('',(3.1,0.,0.));
#724=CARTESIAN_POINT('',(11.569394641874,-13.8042224445522,1.));
#725=CARTESIAN_POINT('',(3.1,0.,0.));
#726=CARTESIAN_POINT('',(7.47939156850438,0.,0.));
#727=CARTESIAN_POINT('',(7.47939156850438,0.,-9.29475019777774));
#728=CARTESIAN_POINT('',(6.22981995981307,9.8122348469315,0.614374672731146));
#729=CARTESIAN_POINT('',(3.1,0.,0.));
#730=CARTESIAN_POINT('',(-9.10729824887824E-15,0.,0.));
#731=CARTESIAN_POINT('',(-9.10729824887824E-15,0.,-5.52437513559382));
#732=CARTESIAN_POINT('',(-6.43665995258427E-15,5.510666662434,0.388939036747048));
#733=CARTESIAN_POINT('',(3.1,0.,0.));
#734=CARTESIAN_POINT('',(0.654234524474148,-0.00523359562430497,0.0998629534754586));
#735=CARTESIAN_POINT('',(3.1,0.,0.));
#736=CARTESIAN_POINT('',(7.47939156850438,9.27624125364975,0.586284438797312));
#737=CARTESIAN_POINT('',(3.1,0.,0.));
#738=(
GEOMETRIC_REPRESENTATION_CONTEXT(3)
GLOBAL_UNCERTAINTY_ASSIGNED_CONTEXT((#739))
GLOBAL_UNIT_ASSIGNED_CONTEXT((#745,#741,#740))
REPRESENTATION_CONTEXT('ATUM-41XD4-WCM-06T308-light',
'TOP_LEVEL_ASSEMBLY_PART')
);
#739=UNCERTAINTY_MEASURE_WITH_UNIT(LENGTH_MEASURE(2.E-5),#745,
'DISTANCE_ACCURACY_VALUE','Maximum Tolerance applied to model');
#740=(
NAMED_UNIT(*)
SI_UNIT($,.STERADIAN.)
SOLID_ANGLE_UNIT()
);
#741=(
CONVERSION_BASED_UNIT('DEGREE',#743)
NAMED_UNIT(#742)
PLANE_ANGLE_UNIT()
);
#742=DIMENSIONAL_EXPONENTS(0.,0.,0.,0.,0.,0.,0.);
#743=PLANE_ANGLE_MEASURE_WITH_UNIT(PLANE_ANGLE_MEASURE(0.0174532925),#744);
#744=(
NAMED_UNIT(*)
PLANE_ANGLE_UNIT()
SI_UNIT($,.RADIAN.)
);
#745=(
LENGTH_UNIT()
NAMED_UNIT(*)
SI_UNIT(.MILLI.,.METRE.)
);
ENDSEC;
END-ISO-10303-21;
