ISO-10303-21;
HEADER;
/* Generated by software containing ST-Developer
 * from STEP Tools, Inc. (www.steptools.com) 
 */
/* OPTION: using custom schema-name function */

FILE_DESCRIPTION(
/* description */ (''),
/* implementation_level */ '2;1');

FILE_NAME(
/* name */ 'ATUM-44.5XD3-SP-110408-light.stp',
/* time_stamp */ '2023-10-11T22:55:08+03:00',
/* author */ (''),
/* organization */ (''),
/* preprocessor_version */ 'ST-DEVELOPER v19.4',
/* originating_system */ 'SIEMENS PLM Software NX2306.3001',
/* authorisation */ '');

FILE_SCHEMA (('AUTOMOTIVE_DESIGN { 1 0 10303 214 3 1 1 1 }'));
ENDSEC;

DATA;
#10=SHAPE_REPRESENTATION_RELATIONSHIP('None',
'relationship between STP_ATUM 42XD3 SP.. 140512-None and STP_ATUM 42X
D3 SP.. 140512-None',#22,#11);
#11=ADVANCED_BREP_SHAPE_REPRESENTATION(
'STP_ATUM 42XD3 SP.. 140512-None',(#68,#69),#671);
#12=SHAPE_DEFINITION_REPRESENTATION(#13,#22);
#13=PRODUCT_DEFINITION_SHAPE('','',#14);
#14=PRODUCT_DEFINITION(' ','',#16,#15);
#15=PRODUCT_DEFINITION_CONTEXT('part definition',#21,'design');
#16=PRODUCT_DEFINITION_FORMATION_WITH_SPECIFIED_SOURCE(' ',' ',#18,
 .NOT_KNOWN.);
#17=PRODUCT_RELATED_PRODUCT_CATEGORY('part','',(#18));
#18=PRODUCT('STP_ATUM 42XD3 SP.. 140512','STP_ATUM 42XD3 SP.. 140512',
' ',(#19));
#19=PRODUCT_CONTEXT(' ',#21,'mechanical');
#20=APPLICATION_PROTOCOL_DEFINITION('international standard',
'automotive_design',2010,#21);
#21=APPLICATION_CONTEXT(
'core data for automotive mechanical design processes');
#22=SHAPE_REPRESENTATION('STP_ATUM 42XD3 SP.. 140512-None',(#390),#671);
#23=DRAUGHTING_PRE_DEFINED_COLOUR('yellow');
#24=SURFACE_OF_REVOLUTION('',#42,#33);
#25=SURFACE_OF_REVOLUTION('',#43,#34);
#26=SURFACE_OF_REVOLUTION('',#382,#35);
#27=SURFACE_OF_REVOLUTION('',#44,#36);
#28=SURFACE_OF_REVOLUTION('',#384,#37);
#29=SURFACE_OF_REVOLUTION('',#386,#38);
#30=SURFACE_OF_REVOLUTION('',#45,#39);
#31=SURFACE_OF_REVOLUTION('',#46,#40);
#32=SURFACE_OF_REVOLUTION('',#389,#41);
#33=AXIS1_PLACEMENT('',#642,#539);
#34=AXIS1_PLACEMENT('',#646,#543);
#35=AXIS1_PLACEMENT('',#650,#548);
#36=AXIS1_PLACEMENT('',#654,#552);
#37=AXIS1_PLACEMENT('',#656,#555);
#38=AXIS1_PLACEMENT('',#660,#560);
#39=AXIS1_PLACEMENT('',#664,#564);
#40=AXIS1_PLACEMENT('',#668,#568);
#41=AXIS1_PLACEMENT('',#670,#571);
#42=LINE('',#641,#47);
#43=LINE('',#645,#48);
#44=LINE('',#653,#49);
#45=LINE('',#663,#50);
#46=LINE('',#667,#51);
#47=VECTOR('',#538,8.43197774956401);
#48=VECTOR('',#542,9.50514448200303);
#49=VECTOR('',#551,11.9);
#50=VECTOR('',#563,1.12401282768322);
#51=VECTOR('',#567,1.38198662918192);
#52=PRESENTATION_LAYER_ASSIGNMENT('1','Layer 1',(#68,#69));
#53=STYLED_ITEM('',(#55),#68);
#54=STYLED_ITEM('',(#56),#69);
#55=PRESENTATION_STYLE_ASSIGNMENT((#57));
#56=PRESENTATION_STYLE_ASSIGNMENT((#58));
#57=SURFACE_STYLE_USAGE(.BOTH.,#59);
#58=SURFACE_STYLE_USAGE(.BOTH.,#60);
#59=SURFACE_SIDE_STYLE('',(#61));
#60=SURFACE_SIDE_STYLE('',(#62));
#61=SURFACE_STYLE_FILL_AREA(#63);
#62=SURFACE_STYLE_FILL_AREA(#64);
#63=FILL_AREA_STYLE('',(#65));
#64=FILL_AREA_STYLE('',(#66));
#65=FILL_AREA_STYLE_COLOUR('',#67);
#66=FILL_AREA_STYLE_COLOUR('',#23);
#67=COLOUR_RGB('smoke gray',0.694117647058824,0.694117647058824,0.694117647058824);
#68=MANIFOLD_SOLID_BREP('',#70);
#69=MANIFOLD_SOLID_BREP('',#71);
#70=CLOSED_SHELL('',(#91,#92,#93,#94,#95,#96,#97,#98,#99,#100,#101,#102,
#103,#104,#105,#106,#107,#108,#109,#110));
#71=CLOSED_SHELL('',(#111,#112,#113,#114,#115,#116,#117,#118,#119,#120,
#121));
#72=FACE_OUTER_BOUND('',#207,.T.);
#73=FACE_OUTER_BOUND('',#220,.T.);
#74=FACE_OUTER_BOUND('',#221,.T.);
#75=FACE_OUTER_BOUND('',#222,.T.);
#76=PLANE('',#413);
#77=PLANE('',#416);
#78=PLANE('',#429);
#79=PLANE('',#431);
#80=PLANE('',#433);
#81=CONICAL_SURFACE('',#399,15.8103073792139,19.9999999999995);
#82=CONICAL_SURFACE('',#403,16.,15.0000000000002);
#83=CONICAL_SURFACE('',#411,16.2056692403838,81.9999999999983);
#84=CONICAL_SURFACE('',#420,22.,0.8425242607404);
#85=CONICAL_SURFACE('',#426,21.7499999999999,3.00000000000002);
#86=CYLINDRICAL_SURFACE('',#395,15.7499999999998);
#87=CYLINDRICAL_SURFACE('',#401,16.);
#88=CYLINDRICAL_SURFACE('',#407,15.7499999999998);
#89=CYLINDRICAL_SURFACE('',#418,21.9999999999994);
#90=CYLINDRICAL_SURFACE('',#424,21.7499999999999);
#91=ADVANCED_FACE('',(#129,#130),#122,.T.);
#92=ADVANCED_FACE('',(#131,#132),#86,.T.);
#93=ADVANCED_FACE('',(#133,#134),#123,.F.);
#94=ADVANCED_FACE('',(#135,#136),#81,.T.);
#95=ADVANCED_FACE('',(#137,#138),#87,.T.);
#96=ADVANCED_FACE('',(#139,#140),#82,.T.);
#97=ADVANCED_FACE('',(#141,#142),#124,.F.);
#98=ADVANCED_FACE('',(#143,#144),#88,.T.);
#99=ADVANCED_FACE('',(#145,#146),#125,.F.);
#100=ADVANCED_FACE('',(#147,#148),#83,.F.);
#101=ADVANCED_FACE('',(#149,#150),#76,.F.);
#102=ADVANCED_FACE('',(#151,#152),#126,.T.);
#103=ADVANCED_FACE('',(#72),#77,.F.);
#104=ADVANCED_FACE('',(#153,#154),#89,.T.);
#105=ADVANCED_FACE('',(#155,#156),#84,.T.);
#106=ADVANCED_FACE('',(#157,#158),#127,.F.);
#107=ADVANCED_FACE('',(#159,#160),#90,.T.);
#108=ADVANCED_FACE('',(#161,#162),#85,.T.);
#109=ADVANCED_FACE('',(#163,#164),#128,.T.);
#110=ADVANCED_FACE('',(#73),#78,.F.);
#111=ADVANCED_FACE('',(#74),#79,.F.);
#112=ADVANCED_FACE('',(#75),#80,.T.);
#113=ADVANCED_FACE('',(#165,#166),#24,.F.);
#114=ADVANCED_FACE('',(#167,#168),#25,.F.);
#115=ADVANCED_FACE('',(#169,#170),#26,.F.);
#116=ADVANCED_FACE('',(#171,#172),#27,.F.);
#117=ADVANCED_FACE('',(#173,#174),#28,.F.);
#118=ADVANCED_FACE('',(#175,#176),#29,.F.);
#119=ADVANCED_FACE('',(#177,#178),#30,.F.);
#120=ADVANCED_FACE('',(#179,#180),#31,.T.);
#121=ADVANCED_FACE('',(#181,#182),#32,.T.);
#122=TOROIDAL_SURFACE('',#393,14.7499999999998,1.);
#123=TOROIDAL_SURFACE('',#397,16.7499999999998,0.999999999999985);
#124=TOROIDAL_SURFACE('',#405,16.1499999999998,0.399999999999997);
#125=TOROIDAL_SURFACE('',#409,16.1499999999998,0.4);
#126=TOROIDAL_SURFACE('',#415,21.3,0.800000000000011);
#127=TOROIDAL_SURFACE('',#422,26.7499999999999,5.);
#128=TOROIDAL_SURFACE('',#428,19.3646785192378,2.);
#129=FACE_BOUND('',#183,.T.);
#130=FACE_BOUND('',#184,.T.);
#131=FACE_BOUND('',#185,.T.);
#132=FACE_BOUND('',#186,.T.);
#133=FACE_BOUND('',#187,.T.);
#134=FACE_BOUND('',#188,.T.);
#135=FACE_BOUND('',#189,.T.);
#136=FACE_BOUND('',#190,.T.);
#137=FACE_BOUND('',#191,.T.);
#138=FACE_BOUND('',#192,.T.);
#139=FACE_BOUND('',#193,.T.);
#140=FACE_BOUND('',#194,.T.);
#141=FACE_BOUND('',#195,.T.);
#142=FACE_BOUND('',#196,.T.);
#143=FACE_BOUND('',#197,.T.);
#144=FACE_BOUND('',#198,.T.);
#145=FACE_BOUND('',#199,.T.);
#146=FACE_BOUND('',#200,.T.);
#147=FACE_BOUND('',#201,.T.);
#148=FACE_BOUND('',#202,.T.);
#149=FACE_BOUND('',#203,.T.);
#150=FACE_BOUND('',#204,.T.);
#151=FACE_BOUND('',#205,.T.);
#152=FACE_BOUND('',#206,.T.);
#153=FACE_BOUND('',#208,.T.);
#154=FACE_BOUND('',#209,.T.);
#155=FACE_BOUND('',#210,.T.);
#156=FACE_BOUND('',#211,.T.);
#157=FACE_BOUND('',#212,.T.);
#158=FACE_BOUND('',#213,.T.);
#159=FACE_BOUND('',#214,.T.);
#160=FACE_BOUND('',#215,.T.);
#161=FACE_BOUND('',#216,.T.);
#162=FACE_BOUND('',#217,.T.);
#163=FACE_BOUND('',#218,.T.);
#164=FACE_BOUND('',#219,.T.);
#165=FACE_BOUND('',#223,.T.);
#166=FACE_BOUND('',#224,.T.);
#167=FACE_BOUND('',#225,.T.);
#168=FACE_BOUND('',#226,.T.);
#169=FACE_BOUND('',#227,.T.);
#170=FACE_BOUND('',#228,.T.);
#171=FACE_BOUND('',#229,.T.);
#172=FACE_BOUND('',#230,.T.);
#173=FACE_BOUND('',#231,.T.);
#174=FACE_BOUND('',#232,.T.);
#175=FACE_BOUND('',#233,.T.);
#176=FACE_BOUND('',#234,.T.);
#177=FACE_BOUND('',#235,.T.);
#178=FACE_BOUND('',#236,.T.);
#179=FACE_BOUND('',#237,.T.);
#180=FACE_BOUND('',#238,.T.);
#181=FACE_BOUND('',#239,.T.);
#182=FACE_BOUND('',#240,.T.);
#183=EDGE_LOOP('',(#241));
#184=EDGE_LOOP('',(#242));
#185=EDGE_LOOP('',(#243));
#186=EDGE_LOOP('',(#244));
#187=EDGE_LOOP('',(#245));
#188=EDGE_LOOP('',(#246));
#189=EDGE_LOOP('',(#247));
#190=EDGE_LOOP('',(#248));
#191=EDGE_LOOP('',(#249));
#192=EDGE_LOOP('',(#250));
#193=EDGE_LOOP('',(#251));
#194=EDGE_LOOP('',(#252));
#195=EDGE_LOOP('',(#253));
#196=EDGE_LOOP('',(#254));
#197=EDGE_LOOP('',(#255));
#198=EDGE_LOOP('',(#256));
#199=EDGE_LOOP('',(#257));
#200=EDGE_LOOP('',(#258));
#201=EDGE_LOOP('',(#259));
#202=EDGE_LOOP('',(#260));
#203=EDGE_LOOP('',(#261));
#204=EDGE_LOOP('',(#262));
#205=EDGE_LOOP('',(#263));
#206=EDGE_LOOP('',(#264));
#207=EDGE_LOOP('',(#265));
#208=EDGE_LOOP('',(#266));
#209=EDGE_LOOP('',(#267));
#210=EDGE_LOOP('',(#268));
#211=EDGE_LOOP('',(#269));
#212=EDGE_LOOP('',(#270));
#213=EDGE_LOOP('',(#271));
#214=EDGE_LOOP('',(#272));
#215=EDGE_LOOP('',(#273));
#216=EDGE_LOOP('',(#274));
#217=EDGE_LOOP('',(#275));
#218=EDGE_LOOP('',(#276));
#219=EDGE_LOOP('',(#277));
#220=EDGE_LOOP('',(#278));
#221=EDGE_LOOP('',(#279));
#222=EDGE_LOOP('',(#280));
#223=EDGE_LOOP('',(#281));
#224=EDGE_LOOP('',(#282));
#225=EDGE_LOOP('',(#283));
#226=EDGE_LOOP('',(#284));
#227=EDGE_LOOP('',(#285));
#228=EDGE_LOOP('',(#286));
#229=EDGE_LOOP('',(#287));
#230=EDGE_LOOP('',(#288));
#231=EDGE_LOOP('',(#289));
#232=EDGE_LOOP('',(#290));
#233=EDGE_LOOP('',(#291));
#234=EDGE_LOOP('',(#292));
#235=EDGE_LOOP('',(#293));
#236=EDGE_LOOP('',(#294));
#237=EDGE_LOOP('',(#295));
#238=EDGE_LOOP('',(#296));
#239=EDGE_LOOP('',(#297));
#240=EDGE_LOOP('',(#298));
#241=ORIENTED_EDGE('',*,*,#328,.T.);
#242=ORIENTED_EDGE('',*,*,#329,.T.);
#243=ORIENTED_EDGE('',*,*,#330,.T.);
#244=ORIENTED_EDGE('',*,*,#328,.F.);
#245=ORIENTED_EDGE('',*,*,#331,.T.);
#246=ORIENTED_EDGE('',*,*,#330,.F.);
#247=ORIENTED_EDGE('',*,*,#332,.T.);
#248=ORIENTED_EDGE('',*,*,#331,.F.);
#249=ORIENTED_EDGE('',*,*,#333,.T.);
#250=ORIENTED_EDGE('',*,*,#332,.F.);
#251=ORIENTED_EDGE('',*,*,#334,.T.);
#252=ORIENTED_EDGE('',*,*,#333,.F.);
#253=ORIENTED_EDGE('',*,*,#335,.T.);
#254=ORIENTED_EDGE('',*,*,#334,.F.);
#255=ORIENTED_EDGE('',*,*,#336,.T.);
#256=ORIENTED_EDGE('',*,*,#335,.F.);
#257=ORIENTED_EDGE('',*,*,#337,.T.);
#258=ORIENTED_EDGE('',*,*,#336,.F.);
#259=ORIENTED_EDGE('',*,*,#338,.T.);
#260=ORIENTED_EDGE('',*,*,#337,.F.);
#261=ORIENTED_EDGE('',*,*,#339,.T.);
#262=ORIENTED_EDGE('',*,*,#338,.F.);
#263=ORIENTED_EDGE('',*,*,#340,.T.);
#264=ORIENTED_EDGE('',*,*,#339,.F.);
#265=ORIENTED_EDGE('',*,*,#329,.F.);
#266=ORIENTED_EDGE('',*,*,#341,.T.);
#267=ORIENTED_EDGE('',*,*,#340,.F.);
#268=ORIENTED_EDGE('',*,*,#342,.T.);
#269=ORIENTED_EDGE('',*,*,#341,.F.);
#270=ORIENTED_EDGE('',*,*,#343,.T.);
#271=ORIENTED_EDGE('',*,*,#342,.F.);
#272=ORIENTED_EDGE('',*,*,#344,.T.);
#273=ORIENTED_EDGE('',*,*,#343,.F.);
#274=ORIENTED_EDGE('',*,*,#345,.T.);
#275=ORIENTED_EDGE('',*,*,#344,.F.);
#276=ORIENTED_EDGE('',*,*,#346,.T.);
#277=ORIENTED_EDGE('',*,*,#345,.F.);
#278=ORIENTED_EDGE('',*,*,#346,.F.);
#279=ORIENTED_EDGE('',*,*,#347,.F.);
#280=ORIENTED_EDGE('',*,*,#348,.F.);
#281=ORIENTED_EDGE('',*,*,#349,.F.);
#282=ORIENTED_EDGE('',*,*,#350,.T.);
#283=ORIENTED_EDGE('',*,*,#351,.T.);
#284=ORIENTED_EDGE('',*,*,#348,.T.);
#285=ORIENTED_EDGE('',*,*,#352,.T.);
#286=ORIENTED_EDGE('',*,*,#351,.F.);
#287=ORIENTED_EDGE('',*,*,#353,.T.);
#288=ORIENTED_EDGE('',*,*,#352,.F.);
#289=ORIENTED_EDGE('',*,*,#349,.T.);
#290=ORIENTED_EDGE('',*,*,#353,.F.);
#291=ORIENTED_EDGE('',*,*,#354,.F.);
#292=ORIENTED_EDGE('',*,*,#347,.T.);
#293=ORIENTED_EDGE('',*,*,#354,.T.);
#294=ORIENTED_EDGE('',*,*,#355,.T.);
#295=ORIENTED_EDGE('',*,*,#355,.F.);
#296=ORIENTED_EDGE('',*,*,#356,.F.);
#297=ORIENTED_EDGE('',*,*,#350,.F.);
#298=ORIENTED_EDGE('',*,*,#356,.T.);
#299=VERTEX_POINT('',#574);
#300=VERTEX_POINT('',#576);
#301=VERTEX_POINT('',#579);
#302=VERTEX_POINT('',#582);
#303=VERTEX_POINT('',#585);
#304=VERTEX_POINT('',#588);
#305=VERTEX_POINT('',#591);
#306=VERTEX_POINT('',#594);
#307=VERTEX_POINT('',#597);
#308=VERTEX_POINT('',#600);
#309=VERTEX_POINT('',#603);
#310=VERTEX_POINT('',#606);
#311=VERTEX_POINT('',#609);
#312=VERTEX_POINT('',#613);
#313=VERTEX_POINT('',#616);
#314=VERTEX_POINT('',#619);
#315=VERTEX_POINT('',#622);
#316=VERTEX_POINT('',#625);
#317=VERTEX_POINT('',#628);
#318=VERTEX_POINT('',#632);
#319=VERTEX_POINT('',#635);
#320=VERTEX_POINT('',#638);
#321=VERTEX_POINT('',#640);
#322=VERTEX_POINT('',#644);
#323=VERTEX_POINT('',#648);
#324=VERTEX_POINT('',#652);
#325=VERTEX_POINT('',#658);
#326=VERTEX_POINT('',#662);
#327=VERTEX_POINT('',#666);
#328=EDGE_CURVE('',#299,#299,#357,.T.);
#329=EDGE_CURVE('',#300,#300,#358,.T.);
#330=EDGE_CURVE('',#301,#301,#359,.T.);
#331=EDGE_CURVE('',#302,#302,#360,.T.);
#332=EDGE_CURVE('',#303,#303,#361,.T.);
#333=EDGE_CURVE('',#304,#304,#362,.T.);
#334=EDGE_CURVE('',#305,#305,#363,.T.);
#335=EDGE_CURVE('',#306,#306,#364,.T.);
#336=EDGE_CURVE('',#307,#307,#365,.T.);
#337=EDGE_CURVE('',#308,#308,#366,.T.);
#338=EDGE_CURVE('',#309,#309,#367,.T.);
#339=EDGE_CURVE('',#310,#310,#368,.T.);
#340=EDGE_CURVE('',#311,#311,#369,.T.);
#341=EDGE_CURVE('',#312,#312,#370,.T.);
#342=EDGE_CURVE('',#313,#313,#371,.T.);
#343=EDGE_CURVE('',#314,#314,#372,.T.);
#344=EDGE_CURVE('',#315,#315,#373,.T.);
#345=EDGE_CURVE('',#316,#316,#374,.T.);
#346=EDGE_CURVE('',#317,#317,#375,.T.);
#347=EDGE_CURVE('',#318,#318,#376,.T.);
#348=EDGE_CURVE('',#319,#319,#377,.T.);
#349=EDGE_CURVE('',#320,#320,#378,.T.);
#350=EDGE_CURVE('',#321,#321,#379,.T.);
#351=EDGE_CURVE('',#322,#322,#380,.T.);
#352=EDGE_CURVE('',#323,#323,#381,.T.);
#353=EDGE_CURVE('',#324,#324,#383,.T.);
#354=EDGE_CURVE('',#325,#325,#385,.T.);
#355=EDGE_CURVE('',#326,#326,#387,.T.);
#356=EDGE_CURVE('',#327,#327,#388,.T.);
#357=CIRCLE('',#391,15.7499999999998);
#358=CIRCLE('',#392,14.7499999999998);
#359=CIRCLE('',#394,15.7499999999998);
#360=CIRCLE('',#396,15.8103073792139);
#361=CIRCLE('',#398,16.);
#362=CIRCLE('',#400,16.);
#363=CIRCLE('',#402,15.7636296694842);
#364=CIRCLE('',#404,15.7499999999998);
#365=CIRCLE('',#406,15.7499999999998);
#366=CIRCLE('',#408,16.2056692403838);
#367=CIRCLE('',#410,17.);
#368=CIRCLE('',#412,21.3);
#369=CIRCLE('',#414,21.9999999999994);
#370=CIRCLE('',#417,22.);
#371=CIRCLE('',#419,21.750540569762);
#372=CIRCLE('',#421,21.7499999999999);
#373=CIRCLE('',#423,21.7499999999999);
#374=CIRCLE('',#425,21.361937588747);
#375=CIRCLE('',#427,19.3646785192378);
#376=CIRCLE('',#430,8.50227222392266);
#377=CIRCLE('',#432,10.610752370192);
#378=CIRCLE('',#434,21.1507262654554);
#379=CIRCLE('',#435,12.7827728387152);
#380=CIRCLE('',#436,20.0319958059847);
#381=CIRCLE('',#437,21.318756527662);
#382=CIRCLE('',#438,1.2);
#383=CIRCLE('',#439,22.2500158345655);
#384=CIRCLE('',#440,1.2);
#385=CIRCLE('',#441,9.36088314853508);
#386=CIRCLE('',#442,1.2);
#387=CIRCLE('',#443,10.4673931150447);
#388=CIRCLE('',#444,11.8426103920712);
#389=CIRCLE('',#445,1.2);
#390=AXIS2_PLACEMENT_3D('',#572,#446,#447);
#391=AXIS2_PLACEMENT_3D('',#573,#448,#449);
#392=AXIS2_PLACEMENT_3D('',#575,#450,#451);
#393=AXIS2_PLACEMENT_3D('',#577,#452,#453);
#394=AXIS2_PLACEMENT_3D('',#578,#454,#455);
#395=AXIS2_PLACEMENT_3D('',#580,#456,#457);
#396=AXIS2_PLACEMENT_3D('',#581,#458,#459);
#397=AXIS2_PLACEMENT_3D('',#583,#460,#461);
#398=AXIS2_PLACEMENT_3D('',#584,#462,#463);
#399=AXIS2_PLACEMENT_3D('',#586,#464,#465);
#400=AXIS2_PLACEMENT_3D('',#587,#466,#467);
#401=AXIS2_PLACEMENT_3D('',#589,#468,#469);
#402=AXIS2_PLACEMENT_3D('',#590,#470,#471);
#403=AXIS2_PLACEMENT_3D('',#592,#472,#473);
#404=AXIS2_PLACEMENT_3D('',#593,#474,#475);
#405=AXIS2_PLACEMENT_3D('',#595,#476,#477);
#406=AXIS2_PLACEMENT_3D('',#596,#478,#479);
#407=AXIS2_PLACEMENT_3D('',#598,#480,#481);
#408=AXIS2_PLACEMENT_3D('',#599,#482,#483);
#409=AXIS2_PLACEMENT_3D('',#601,#484,#485);
#410=AXIS2_PLACEMENT_3D('',#602,#486,#487);
#411=AXIS2_PLACEMENT_3D('',#604,#488,#489);
#412=AXIS2_PLACEMENT_3D('',#605,#490,#491);
#413=AXIS2_PLACEMENT_3D('',#607,#492,#493);
#414=AXIS2_PLACEMENT_3D('',#608,#494,#495);
#415=AXIS2_PLACEMENT_3D('',#610,#496,#497);
#416=AXIS2_PLACEMENT_3D('',#611,#498,#499);
#417=AXIS2_PLACEMENT_3D('',#612,#500,#501);
#418=AXIS2_PLACEMENT_3D('',#614,#502,#503);
#419=AXIS2_PLACEMENT_3D('',#615,#504,#505);
#420=AXIS2_PLACEMENT_3D('',#617,#506,#507);
#421=AXIS2_PLACEMENT_3D('',#618,#508,#509);
#422=AXIS2_PLACEMENT_3D('',#620,#510,#511);
#423=AXIS2_PLACEMENT_3D('',#621,#512,#513);
#424=AXIS2_PLACEMENT_3D('',#623,#514,#515);
#425=AXIS2_PLACEMENT_3D('',#624,#516,#517);
#426=AXIS2_PLACEMENT_3D('',#626,#518,#519);
#427=AXIS2_PLACEMENT_3D('',#627,#520,#521);
#428=AXIS2_PLACEMENT_3D('',#629,#522,#523);
#429=AXIS2_PLACEMENT_3D('',#630,#524,#525);
#430=AXIS2_PLACEMENT_3D('',#631,#526,#527);
#431=AXIS2_PLACEMENT_3D('',#633,#528,#529);
#432=AXIS2_PLACEMENT_3D('',#634,#530,#531);
#433=AXIS2_PLACEMENT_3D('',#636,#532,#533);
#434=AXIS2_PLACEMENT_3D('',#637,#534,#535);
#435=AXIS2_PLACEMENT_3D('',#639,#536,#537);
#436=AXIS2_PLACEMENT_3D('',#643,#540,#541);
#437=AXIS2_PLACEMENT_3D('',#647,#544,#545);
#438=AXIS2_PLACEMENT_3D('',#649,#546,#547);
#439=AXIS2_PLACEMENT_3D('',#651,#549,#550);
#440=AXIS2_PLACEMENT_3D('',#655,#553,#554);
#441=AXIS2_PLACEMENT_3D('',#657,#556,#557);
#442=AXIS2_PLACEMENT_3D('',#659,#558,#559);
#443=AXIS2_PLACEMENT_3D('',#661,#561,#562);
#444=AXIS2_PLACEMENT_3D('',#665,#565,#566);
#445=AXIS2_PLACEMENT_3D('',#669,#569,#570);
#446=DIRECTION('',(0.,0.,1.));
#447=DIRECTION('',(1.,0.,0.));
#448=DIRECTION('',(1.,0.,0.));
#449=DIRECTION('',(0.,0.,1.));
#450=DIRECTION('',(-1.,0.,0.));
#451=DIRECTION('',(0.,0.,1.));
#452=DIRECTION('',(-1.,0.,0.));
#453=DIRECTION('',(0.,0.,1.));
#454=DIRECTION('',(1.,0.,0.));
#455=DIRECTION('',(0.,0.,1.));
#456=DIRECTION('',(-1.,0.,0.));
#457=DIRECTION('',(0.,0.,1.));
#458=DIRECTION('',(1.,0.,0.));
#459=DIRECTION('',(0.,0.,1.));
#460=DIRECTION('',(-1.,0.,0.));
#461=DIRECTION('',(0.,0.,1.));
#462=DIRECTION('',(1.,0.,0.));
#463=DIRECTION('',(0.,0.,1.));
#464=DIRECTION('',(-1.,0.,0.));
#465=DIRECTION('',(-7.30831956144393E-17,0.,1.));
#466=DIRECTION('',(1.,0.,0.));
#467=DIRECTION('',(0.,0.,1.));
#468=DIRECTION('',(-1.,0.,0.));
#469=DIRECTION('',(0.,0.,1.));
#470=DIRECTION('',(1.,0.,0.));
#471=DIRECTION('',(0.,0.,1.));
#472=DIRECTION('',(1.,0.,0.));
#473=DIRECTION('',(9.77483872307936E-17,0.,-1.));
#474=DIRECTION('',(1.,0.,0.));
#475=DIRECTION('',(0.,0.,1.));
#476=DIRECTION('',(-1.,0.,0.));
#477=DIRECTION('',(0.,0.,1.));
#478=DIRECTION('',(1.,0.,0.));
#479=DIRECTION('',(0.,0.,1.));
#480=DIRECTION('',(-1.,0.,0.));
#481=DIRECTION('',(0.,0.,1.));
#482=DIRECTION('',(1.,0.,0.));
#483=DIRECTION('',(0.,0.,1.));
#484=DIRECTION('',(-1.,0.,0.));
#485=DIRECTION('',(0.,0.,1.));
#486=DIRECTION('',(1.,0.,0.));
#487=DIRECTION('',(0.,0.,1.));
#488=DIRECTION('',(1.,0.,0.));
#489=DIRECTION('',(7.78385534512654E-18,0.,-1.));
#490=DIRECTION('',(1.,0.,0.));
#491=DIRECTION('',(0.,0.,1.));
#492=DIRECTION('',(-1.,0.,0.));
#493=DIRECTION('',(0.,0.,1.));
#494=DIRECTION('',(1.,0.,0.));
#495=DIRECTION('',(0.,0.,1.));
#496=DIRECTION('',(-1.,0.,0.));
#497=DIRECTION('',(0.,0.,1.));
#498=DIRECTION('',(-1.,0.,0.));
#499=DIRECTION('',(0.,0.,1.));
#500=DIRECTION('',(1.,0.,0.));
#501=DIRECTION('',(0.,0.,1.));
#502=DIRECTION('',(-1.,0.,0.));
#503=DIRECTION('',(0.,0.,1.));
#504=DIRECTION('',(1.,0.,0.));
#505=DIRECTION('',(0.,0.,1.));
#506=DIRECTION('',(1.,0.,0.));
#507=DIRECTION('',(7.56161515169382E-16,0.,-1.));
#508=DIRECTION('',(1.,0.,0.));
#509=DIRECTION('',(0.,0.,1.));
#510=DIRECTION('',(-1.,0.,0.));
#511=DIRECTION('',(0.,0.,1.));
#512=DIRECTION('',(1.,0.,0.));
#513=DIRECTION('',(0.,0.,1.));
#514=DIRECTION('',(-1.,0.,0.));
#515=DIRECTION('',(0.,0.,1.));
#516=DIRECTION('',(1.,0.,0.));
#517=DIRECTION('',(0.,0.,1.));
#518=DIRECTION('',(1.,0.,0.));
#519=DIRECTION('',(1.49710931929032E-15,0.,-1.));
#520=DIRECTION('',(1.,0.,0.));
#521=DIRECTION('',(0.,0.,1.));
#522=DIRECTION('',(-1.,0.,0.));
#523=DIRECTION('',(0.,0.,1.));
#524=DIRECTION('',(1.,0.,0.));
#525=DIRECTION('',(0.,0.,-1.));
#526=DIRECTION('',(1.,0.,0.));
#527=DIRECTION('',(0.,0.,-1.));
#528=DIRECTION('',(1.,0.,0.));
#529=DIRECTION('',(0.,0.,-1.));
#530=DIRECTION('',(-1.,0.,0.));
#531=DIRECTION('',(0.,0.,-1.));
#532=DIRECTION('',(1.,0.,0.));
#533=DIRECTION('',(0.,0.,-1.));
#534=DIRECTION('',(1.,0.,0.));
#535=DIRECTION('',(0.,0.,-1.));
#536=DIRECTION('',(1.,0.,0.));
#537=DIRECTION('',(0.,0.,-1.));
#538=DIRECTION('',(-0.078459095727846,0.989486463101343,-0.121493660891267));
#539=DIRECTION('',(1.,0.,0.));
#540=DIRECTION('',(1.,0.,0.));
#541=DIRECTION('',(0.,0.,-1.));
#542=DIRECTION('',(0.0784590957278456,-0.989486463101343,0.121493660891267));
#543=DIRECTION('',(1.,0.,0.));
#544=DIRECTION('',(1.,0.,0.));
#545=DIRECTION('',(0.,0.,-1.));
#546=DIRECTION('',(5.27355936696949E-16,-0.121869343405148,-0.992546151641322));
#547=DIRECTION('',(0.996917333733128,0.0778742735259316,-0.0095617584805137));
#548=DIRECTION('',(1.,0.,0.));
#549=DIRECTION('',(1.,0.,0.));
#550=DIRECTION('',(0.,0.,-1.));
#551=DIRECTION('',(-0.996917333733128,-0.0778742735259309,0.00956175848051454));
#552=DIRECTION('',(1.,0.,0.));
#553=DIRECTION('',(5.27355936696949E-16,-0.121869343405148,-0.992546151641322));
#554=DIRECTION('',(0.996917333733128,0.0778742735259316,-0.0095617584805137));
#555=DIRECTION('',(1.,0.,0.));
#556=DIRECTION('',(1.,0.,0.));
#557=DIRECTION('',(0.,0.,-1.));
#558=DIRECTION('',(5.27355936696949E-16,-0.121869343405148,-0.992546151641322));
#559=DIRECTION('',(0.996917333733128,0.0778742735259316,-0.0095617584805137));
#560=DIRECTION('',(1.,0.,0.));
#561=DIRECTION('',(-1.,0.,0.));
#562=DIRECTION('',(0.,0.,-1.));
#563=DIRECTION('',(-0.078459095727846,0.989486463101343,-0.121493660891267));
#564=DIRECTION('',(1.,0.,0.));
#565=DIRECTION('',(1.,0.,0.));
#566=DIRECTION('',(0.,0.,-1.));
#567=DIRECTION('',(-0.0984513622388923,0.995141863893438,0.));
#568=DIRECTION('',(1.,0.,0.));
#569=DIRECTION('',(-4.02966437406302E-16,-3.81918479210644E-17,-1.));
#570=DIRECTION('',(0.995141863893438,0.0984513622388924,-4.04768811061255E-16));
#571=DIRECTION('',(1.,0.,0.));
#572=CARTESIAN_POINT('',(0.,0.,0.));
#573=CARTESIAN_POINT('',(218.,0.,0.));
#574=CARTESIAN_POINT('',(218.,0.,15.7499999999998));
#575=CARTESIAN_POINT('',(219.,0.,0.));
#576=CARTESIAN_POINT('',(219.,0.,14.7499999999998));
#577=CARTESIAN_POINT('',(218.,0.,0.));
#578=CARTESIAN_POINT('',(216.176326980708,0.,0.));
#579=CARTESIAN_POINT('',(216.176326980708,0.,15.7499999999998));
#580=CARTESIAN_POINT('',(0.,0.,0.));
#581=CARTESIAN_POINT('',(215.834306837383,0.,0.));
#582=CARTESIAN_POINT('',(215.834306837383,0.,15.8103073792139));
#583=CARTESIAN_POINT('',(216.176326980708,0.,0.));
#584=CARTESIAN_POINT('',(215.313130645136,0.,0.));
#585=CARTESIAN_POINT('',(215.313130645136,0.,16.));
#586=CARTESIAN_POINT('',(215.834306837383,0.,0.));
#587=CARTESIAN_POINT('',(161.,0.,0.));
#588=CARTESIAN_POINT('',(161.,0.,16.));
#589=CARTESIAN_POINT('',(0.,0.,0.));
#590=CARTESIAN_POINT('',(160.117853917113,0.,0.));
#591=CARTESIAN_POINT('',(160.117853917113,0.,15.7636296694842));
#592=CARTESIAN_POINT('',(161.,0.,0.));
#593=CARTESIAN_POINT('',(160.014326299072,0.,0.));
#594=CARTESIAN_POINT('',(160.014326299072,0.,15.7499999999998));
#595=CARTESIAN_POINT('',(160.014326299072,0.,0.));
#596=CARTESIAN_POINT('',(159.28447131951,0.,0.));
#597=CARTESIAN_POINT('',(159.28447131951,0.,15.7499999999998));
#598=CARTESIAN_POINT('',(0.,0.,0.));
#599=CARTESIAN_POINT('',(158.888364092014,0.,0.));
#600=CARTESIAN_POINT('',(158.888364092014,0.,16.2056692403838));
#601=CARTESIAN_POINT('',(159.28447131951,0.,0.));
#602=CARTESIAN_POINT('',(159.,0.,0.));
#603=CARTESIAN_POINT('',(159.,0.,17.));
#604=CARTESIAN_POINT('',(158.888364092014,0.,0.));
#605=CARTESIAN_POINT('',(159.,0.,0.));
#606=CARTESIAN_POINT('',(159.,0.,21.3));
#607=CARTESIAN_POINT('',(159.,17.,0.));
#608=CARTESIAN_POINT('',(158.587298334622,0.,0.));
#609=CARTESIAN_POINT('',(158.587298334622,0.,21.9999999999994));
#610=CARTESIAN_POINT('',(158.2,0.,0.));
#611=CARTESIAN_POINT('',(219.,22.5,0.));
#612=CARTESIAN_POINT('',(154.000000000002,0.,0.));
#613=CARTESIAN_POINT('',(154.000000000002,0.,22.));
#614=CARTESIAN_POINT('',(0.,0.,0.));
#615=CARTESIAN_POINT('',(137.036758743816,0.,0.));
#616=CARTESIAN_POINT('',(137.036758743816,0.,21.750540569762));
#617=CARTESIAN_POINT('',(154.000000000002,0.,0.));
#618=CARTESIAN_POINT('',(136.963237281606,0.,0.));
#619=CARTESIAN_POINT('',(136.963237281606,0.,21.7499999999999));
#620=CARTESIAN_POINT('',(136.963237281606,0.,0.));
#621=CARTESIAN_POINT('',(11.,0.,0.));
#622=CARTESIAN_POINT('',(11.,0.,21.7499999999999));
#623=CARTESIAN_POINT('',(0.,0.,0.));
#624=CARTESIAN_POINT('',(3.59532808751411,0.,0.));
#625=CARTESIAN_POINT('',(3.59532808751411,0.,21.361937588747));
#626=CARTESIAN_POINT('',(11.,0.,0.));
#627=CARTESIAN_POINT('',(1.7,0.,0.));
#628=CARTESIAN_POINT('',(1.7,0.,19.3646785192378));
#629=CARTESIAN_POINT('',(3.7,0.,0.));
#630=CARTESIAN_POINT('',(1.7,19.3646785192378,0.));
#631=CARTESIAN_POINT('',(0.336312468051547,0.,0.));
#632=CARTESIAN_POINT('',(0.336312468051547,0.,-8.50227222392266));
#633=CARTESIAN_POINT('',(0.336312468051547,0.,0.));
#634=CARTESIAN_POINT('',(14.4975152702448,0.,0.));
#635=CARTESIAN_POINT('',(14.4975152702448,0.,-10.610752370192));
#636=CARTESIAN_POINT('',(14.4975152702448,0.,0.));
#637=CARTESIAN_POINT('',(0.987362438681597,0.,0.));
#638=CARTESIAN_POINT('',(0.987362438681597,0.,-21.1507262654554));
#639=CARTESIAN_POINT('',(0.325797089253007,0.,0.));
#640=CARTESIAN_POINT('',(0.325797089253007,0.,-12.7827728387152));
#641=CARTESIAN_POINT('',(0.987362438681596,-20.745410173169,4.12082252750598));
#642=CARTESIAN_POINT('',(11.,0.,0.));
#643=CARTESIAN_POINT('',(15.2432803110653,0.,0.));
#644=CARTESIAN_POINT('',(15.2432803110653,0.,-20.0319958059847));
#645=CARTESIAN_POINT('',(14.4975152702448,-10.2265962669838,2.82927458081565));
#646=CARTESIAN_POINT('',(11.,0.,0.));
#647=CARTESIAN_POINT('',(14.141130425459,0.,0.));
#648=CARTESIAN_POINT('',(14.141130425459,0.,-21.318756527662));
#649=CARTESIAN_POINT('',(14.0469795105856,-19.7252571899793,3.99556349141125));
#650=CARTESIAN_POINT('',(11.,0.,0.));
#651=CARTESIAN_POINT('',(2.27781415403476,0.,0.));
#652=CARTESIAN_POINT('',(2.27781415403476,0.,-22.2500158345655));
#653=CARTESIAN_POINT('',(14.141130425459,-20.9126409457009,4.14135588448076));
#654=CARTESIAN_POINT('',(11.,0.,0.));
#655=CARTESIAN_POINT('',(2.18366323916136,-20.6519610449379,4.10934841732935));
#656=CARTESIAN_POINT('',(11.,0.,0.));
#657=CARTESIAN_POINT('',(0.0536991995202275,0.,0.));
#658=CARTESIAN_POINT('',(0.0536991995202275,0.,-9.36088314853508));
#659=CARTESIAN_POINT('',(1.25,-8.8770721340319,2.66357385272328));
#660=CARTESIAN_POINT('',(11.,0.,0.));
#661=CARTESIAN_POINT('',(0.141888229566753,0.,0.));
#662=CARTESIAN_POINT('',(0.141888229566753,0.,-10.4673931150447));
#663=CARTESIAN_POINT('',(0.141888229566753,-10.0827167396078,2.81160839622388));
#664=CARTESIAN_POINT('',(11.,0.,0.));
#665=CARTESIAN_POINT('',(0.00582976332788587,0.,0.));
#666=CARTESIAN_POINT('',(0.00582976332788587,0.,-11.8426103920712));
#667=CARTESIAN_POINT('',(0.141888229566753,10.466915430292,0.100000000000028));
#668=CARTESIAN_POINT('',(11.,0.,0.));
#669=CARTESIAN_POINT('',(1.20000000000001,11.9603298150186,0.100000000000028));
#670=CARTESIAN_POINT('',(11.,0.,0.));
#671=(
GEOMETRIC_REPRESENTATION_CONTEXT(3)
GLOBAL_UNCERTAINTY_ASSIGNED_CONTEXT((#672))
GLOBAL_UNIT_ASSIGNED_CONTEXT((#678,#674,#673))
REPRESENTATION_CONTEXT('ATUM-44','TOP_LEVEL_ASSEMBLY_PART')
);
#672=UNCERTAINTY_MEASURE_WITH_UNIT(LENGTH_MEASURE(2.E-5),#678,
'DISTANCE_ACCURACY_VALUE','Maximum Tolerance applied to model');
#673=(
NAMED_UNIT(*)
SI_UNIT($,.STERADIAN.)
SOLID_ANGLE_UNIT()
);
#674=(
CONVERSION_BASED_UNIT('DEGREE',#676)
NAMED_UNIT(#675)
PLANE_ANGLE_UNIT()
);
#675=DIMENSIONAL_EXPONENTS(0.,0.,0.,0.,0.,0.,0.);
#676=PLANE_ANGLE_MEASURE_WITH_UNIT(PLANE_ANGLE_MEASURE(0.0174532925),#677);
#677=(
NAMED_UNIT(*)
PLANE_ANGLE_UNIT()
SI_UNIT($,.RADIAN.)
);
#678=(
LENGTH_UNIT()
NAMED_UNIT(*)
SI_UNIT(.MILLI.,.METRE.)
);
ENDSEC;
END-ISO-10303-21;
