ISO-10303-21;
HEADER;
/* Generated by software containing ST-Developer
 * from STEP Tools, Inc. (www.steptools.com) 
 */
/* OPTION: using custom schema-name function */

FILE_DESCRIPTION(
/* description */ (''),
/* implementation_level */ '2;1');

FILE_NAME(
/* name */ 'ATUM-51XD3-SP-140512-light.stp',
/* time_stamp */ '2023-10-11T23:10:41+03:00',
/* author */ (''),
/* organization */ (''),
/* preprocessor_version */ 'ST-DEVELOPER v19.4',
/* originating_system */ 'SIEMENS PLM Software NX2306.3001',
/* authorisation */ '');

FILE_SCHEMA (('AUTOMOTIVE_DESIGN { 1 0 10303 214 3 1 1 1 }'));
ENDSEC;

DATA;
#10=SHAPE_REPRESENTATION_RELATIONSHIP('None',
'relationship between STP_ATUM 42XD3 SP.. 140512-None and STP_ATUM 42X
D3 SP.. 140512-None',#22,#11);
#11=ADVANCED_BREP_SHAPE_REPRESENTATION(
'STP_ATUM 42XD3 SP.. 140512-None',(#64,#65),#668);
#12=SHAPE_DEFINITION_REPRESENTATION(#13,#22);
#13=PRODUCT_DEFINITION_SHAPE('','',#14);
#14=PRODUCT_DEFINITION(' ','',#16,#15);
#15=PRODUCT_DEFINITION_CONTEXT('part definition',#21,'design');
#16=PRODUCT_DEFINITION_FORMATION_WITH_SPECIFIED_SOURCE(' ',' ',#18,
 .NOT_KNOWN.);
#17=PRODUCT_RELATED_PRODUCT_CATEGORY('part','',(#18));
#18=PRODUCT('STP_ATUM 42XD3 SP.. 140512','STP_ATUM 42XD3 SP.. 140512',
' ',(#19));
#19=PRODUCT_CONTEXT(' ',#21,'mechanical');
#20=APPLICATION_PROTOCOL_DEFINITION('international standard',
'automotive_design',2010,#21);
#21=APPLICATION_CONTEXT(
'core data for automotive mechanical design processes');
#22=SHAPE_REPRESENTATION('STP_ATUM 42XD3 SP.. 140512-None',(#387),#668);
#23=DRAUGHTING_PRE_DEFINED_COLOUR('yellow');
#24=LINE('',#646,#28);
#25=LINE('',#650,#29);
#26=LINE('',#658,#30);
#27=LINE('',#666,#31);
#28=VECTOR('',#545,11.3263848875021);
#29=VECTOR('',#549,11.9);
#30=VECTOR('',#558,11.9);
#31=VECTOR('',#568,11.9000000000001);
#32=SURFACE_OF_REVOLUTION('',#378,#40);
#33=SURFACE_OF_REVOLUTION('',#24,#41);
#34=SURFACE_OF_REVOLUTION('',#25,#42);
#35=SURFACE_OF_REVOLUTION('',#382,#43);
#36=SURFACE_OF_REVOLUTION('',#26,#44);
#37=SURFACE_OF_REVOLUTION('',#384,#45);
#38=SURFACE_OF_REVOLUTION('',#386,#46);
#39=SURFACE_OF_REVOLUTION('',#27,#47);
#40=AXIS1_PLACEMENT('',#643,#542);
#41=AXIS1_PLACEMENT('',#647,#546);
#42=AXIS1_PLACEMENT('',#651,#550);
#43=AXIS1_PLACEMENT('',#655,#555);
#44=AXIS1_PLACEMENT('',#659,#559);
#45=AXIS1_PLACEMENT('',#661,#562);
#46=AXIS1_PLACEMENT('',#665,#567);
#47=AXIS1_PLACEMENT('',#667,#569);
#48=PRESENTATION_LAYER_ASSIGNMENT('1','Layer 1',(#64,#65));
#49=STYLED_ITEM('',(#51),#64);
#50=STYLED_ITEM('',(#52),#65);
#51=PRESENTATION_STYLE_ASSIGNMENT((#53));
#52=PRESENTATION_STYLE_ASSIGNMENT((#54));
#53=SURFACE_STYLE_USAGE(.BOTH.,#55);
#54=SURFACE_STYLE_USAGE(.BOTH.,#56);
#55=SURFACE_SIDE_STYLE('',(#57));
#56=SURFACE_SIDE_STYLE('',(#58));
#57=SURFACE_STYLE_FILL_AREA(#59);
#58=SURFACE_STYLE_FILL_AREA(#60);
#59=FILL_AREA_STYLE('',(#61));
#60=FILL_AREA_STYLE('',(#62));
#61=FILL_AREA_STYLE_COLOUR('',#63);
#62=FILL_AREA_STYLE_COLOUR('',#23);
#63=COLOUR_RGB('smoke gray',0.694117647058824,0.694117647058824,0.694117647058824);
#64=MANIFOLD_SOLID_BREP('',#66);
#65=MANIFOLD_SOLID_BREP('',#67);
#66=CLOSED_SHELL('',(#87,#88,#89,#90,#91,#92,#93,#94,#95,#96,#97,#98,#99,
#100,#101,#102,#103,#104,#105,#106,#107));
#67=CLOSED_SHELL('',(#108,#109,#110,#111,#112,#113,#114,#115,#116,#117));
#68=FACE_OUTER_BOUND('',#204,.T.);
#69=FACE_OUTER_BOUND('',#219,.T.);
#70=FACE_OUTER_BOUND('',#220,.T.);
#71=FACE_OUTER_BOUND('',#221,.T.);
#72=PLANE('',#410);
#73=PLANE('',#413);
#74=PLANE('',#428);
#75=PLANE('',#430);
#76=PLANE('',#432);
#77=CONICAL_SURFACE('',#396,19.810307379214,19.9999999999997);
#78=CONICAL_SURFACE('',#400,20.,14.9999999999995);
#79=CONICAL_SURFACE('',#408,20.205669240384,82.0000000000008);
#80=CONICAL_SURFACE('',#419,26.9876796194031,5.1944289077348);
#81=CONICAL_SURFACE('',#425,25.,3.00000000000002);
#82=CYLINDRICAL_SURFACE('',#392,19.7500000000008);
#83=CYLINDRICAL_SURFACE('',#398,20.);
#84=CYLINDRICAL_SURFACE('',#404,19.7499999999999);
#85=CYLINDRICAL_SURFACE('',#415,27.);
#86=CYLINDRICAL_SURFACE('',#423,25.);
#87=ADVANCED_FACE('',(#126,#127),#118,.T.);
#88=ADVANCED_FACE('',(#128,#129),#82,.T.);
#89=ADVANCED_FACE('',(#130,#131),#119,.F.);
#90=ADVANCED_FACE('',(#132,#133),#77,.T.);
#91=ADVANCED_FACE('',(#134,#135),#83,.T.);
#92=ADVANCED_FACE('',(#136,#137),#78,.T.);
#93=ADVANCED_FACE('',(#138,#139),#120,.F.);
#94=ADVANCED_FACE('',(#140,#141),#84,.T.);
#95=ADVANCED_FACE('',(#142,#143),#121,.F.);
#96=ADVANCED_FACE('',(#144,#145),#79,.F.);
#97=ADVANCED_FACE('',(#146,#147),#72,.F.);
#98=ADVANCED_FACE('',(#148,#149),#122,.T.);
#99=ADVANCED_FACE('',(#68),#73,.F.);
#100=ADVANCED_FACE('',(#150,#151),#85,.T.);
#101=ADVANCED_FACE('',(#152,#153),#123,.T.);
#102=ADVANCED_FACE('',(#154,#155),#80,.T.);
#103=ADVANCED_FACE('',(#156,#157),#124,.F.);
#104=ADVANCED_FACE('',(#158,#159),#86,.T.);
#105=ADVANCED_FACE('',(#160,#161),#81,.T.);
#106=ADVANCED_FACE('',(#162,#163),#125,.T.);
#107=ADVANCED_FACE('',(#69),#74,.F.);
#108=ADVANCED_FACE('',(#70),#75,.F.);
#109=ADVANCED_FACE('',(#71),#76,.T.);
#110=ADVANCED_FACE('',(#164,#165),#32,.F.);
#111=ADVANCED_FACE('',(#166,#167),#33,.F.);
#112=ADVANCED_FACE('',(#168,#169),#34,.F.);
#113=ADVANCED_FACE('',(#170,#171),#35,.F.);
#114=ADVANCED_FACE('',(#172,#173),#36,.F.);
#115=ADVANCED_FACE('',(#174,#175),#37,.F.);
#116=ADVANCED_FACE('',(#176,#177),#38,.T.);
#117=ADVANCED_FACE('',(#178,#179),#39,.T.);
#118=TOROIDAL_SURFACE('',#390,18.7500000000017,0.999999999999972);
#119=TOROIDAL_SURFACE('',#394,20.7499999999999,0.999999999999997);
#120=TOROIDAL_SURFACE('',#402,20.1499999999999,0.399999999999999);
#121=TOROIDAL_SURFACE('',#406,20.1499999999999,0.399999999999972);
#122=TOROIDAL_SURFACE('',#412,26.3,0.800000000000011);
#123=TOROIDAL_SURFACE('',#417,24.,3.);
#124=TOROIDAL_SURFACE('',#421,30.,5.);
#125=TOROIDAL_SURFACE('',#427,22.614678519238,2.);
#126=FACE_BOUND('',#180,.T.);
#127=FACE_BOUND('',#181,.T.);
#128=FACE_BOUND('',#182,.T.);
#129=FACE_BOUND('',#183,.T.);
#130=FACE_BOUND('',#184,.T.);
#131=FACE_BOUND('',#185,.T.);
#132=FACE_BOUND('',#186,.T.);
#133=FACE_BOUND('',#187,.T.);
#134=FACE_BOUND('',#188,.T.);
#135=FACE_BOUND('',#189,.T.);
#136=FACE_BOUND('',#190,.T.);
#137=FACE_BOUND('',#191,.T.);
#138=FACE_BOUND('',#192,.T.);
#139=FACE_BOUND('',#193,.T.);
#140=FACE_BOUND('',#194,.T.);
#141=FACE_BOUND('',#195,.T.);
#142=FACE_BOUND('',#196,.T.);
#143=FACE_BOUND('',#197,.T.);
#144=FACE_BOUND('',#198,.T.);
#145=FACE_BOUND('',#199,.T.);
#146=FACE_BOUND('',#200,.T.);
#147=FACE_BOUND('',#201,.T.);
#148=FACE_BOUND('',#202,.T.);
#149=FACE_BOUND('',#203,.T.);
#150=FACE_BOUND('',#205,.T.);
#151=FACE_BOUND('',#206,.T.);
#152=FACE_BOUND('',#207,.T.);
#153=FACE_BOUND('',#208,.T.);
#154=FACE_BOUND('',#209,.T.);
#155=FACE_BOUND('',#210,.T.);
#156=FACE_BOUND('',#211,.T.);
#157=FACE_BOUND('',#212,.T.);
#158=FACE_BOUND('',#213,.T.);
#159=FACE_BOUND('',#214,.T.);
#160=FACE_BOUND('',#215,.T.);
#161=FACE_BOUND('',#216,.T.);
#162=FACE_BOUND('',#217,.T.);
#163=FACE_BOUND('',#218,.T.);
#164=FACE_BOUND('',#222,.T.);
#165=FACE_BOUND('',#223,.T.);
#166=FACE_BOUND('',#224,.T.);
#167=FACE_BOUND('',#225,.T.);
#168=FACE_BOUND('',#226,.T.);
#169=FACE_BOUND('',#227,.T.);
#170=FACE_BOUND('',#228,.T.);
#171=FACE_BOUND('',#229,.T.);
#172=FACE_BOUND('',#230,.T.);
#173=FACE_BOUND('',#231,.T.);
#174=FACE_BOUND('',#232,.T.);
#175=FACE_BOUND('',#233,.T.);
#176=FACE_BOUND('',#234,.T.);
#177=FACE_BOUND('',#235,.T.);
#178=FACE_BOUND('',#236,.T.);
#179=FACE_BOUND('',#237,.T.);
#180=EDGE_LOOP('',(#238));
#181=EDGE_LOOP('',(#239));
#182=EDGE_LOOP('',(#240));
#183=EDGE_LOOP('',(#241));
#184=EDGE_LOOP('',(#242));
#185=EDGE_LOOP('',(#243));
#186=EDGE_LOOP('',(#244));
#187=EDGE_LOOP('',(#245));
#188=EDGE_LOOP('',(#246));
#189=EDGE_LOOP('',(#247));
#190=EDGE_LOOP('',(#248));
#191=EDGE_LOOP('',(#249));
#192=EDGE_LOOP('',(#250));
#193=EDGE_LOOP('',(#251));
#194=EDGE_LOOP('',(#252));
#195=EDGE_LOOP('',(#253));
#196=EDGE_LOOP('',(#254));
#197=EDGE_LOOP('',(#255));
#198=EDGE_LOOP('',(#256));
#199=EDGE_LOOP('',(#257));
#200=EDGE_LOOP('',(#258));
#201=EDGE_LOOP('',(#259));
#202=EDGE_LOOP('',(#260));
#203=EDGE_LOOP('',(#261));
#204=EDGE_LOOP('',(#262));
#205=EDGE_LOOP('',(#263));
#206=EDGE_LOOP('',(#264));
#207=EDGE_LOOP('',(#265));
#208=EDGE_LOOP('',(#266));
#209=EDGE_LOOP('',(#267));
#210=EDGE_LOOP('',(#268));
#211=EDGE_LOOP('',(#269));
#212=EDGE_LOOP('',(#270));
#213=EDGE_LOOP('',(#271));
#214=EDGE_LOOP('',(#272));
#215=EDGE_LOOP('',(#273));
#216=EDGE_LOOP('',(#274));
#217=EDGE_LOOP('',(#275));
#218=EDGE_LOOP('',(#276));
#219=EDGE_LOOP('',(#277));
#220=EDGE_LOOP('',(#278));
#221=EDGE_LOOP('',(#279));
#222=EDGE_LOOP('',(#280));
#223=EDGE_LOOP('',(#281));
#224=EDGE_LOOP('',(#282));
#225=EDGE_LOOP('',(#283));
#226=EDGE_LOOP('',(#284));
#227=EDGE_LOOP('',(#285));
#228=EDGE_LOOP('',(#286));
#229=EDGE_LOOP('',(#287));
#230=EDGE_LOOP('',(#288));
#231=EDGE_LOOP('',(#289));
#232=EDGE_LOOP('',(#290));
#233=EDGE_LOOP('',(#291));
#234=EDGE_LOOP('',(#292));
#235=EDGE_LOOP('',(#293));
#236=EDGE_LOOP('',(#294));
#237=EDGE_LOOP('',(#295));
#238=ORIENTED_EDGE('',*,*,#325,.T.);
#239=ORIENTED_EDGE('',*,*,#326,.T.);
#240=ORIENTED_EDGE('',*,*,#327,.T.);
#241=ORIENTED_EDGE('',*,*,#325,.F.);
#242=ORIENTED_EDGE('',*,*,#328,.T.);
#243=ORIENTED_EDGE('',*,*,#327,.F.);
#244=ORIENTED_EDGE('',*,*,#329,.T.);
#245=ORIENTED_EDGE('',*,*,#328,.F.);
#246=ORIENTED_EDGE('',*,*,#330,.T.);
#247=ORIENTED_EDGE('',*,*,#329,.F.);
#248=ORIENTED_EDGE('',*,*,#331,.T.);
#249=ORIENTED_EDGE('',*,*,#330,.F.);
#250=ORIENTED_EDGE('',*,*,#332,.T.);
#251=ORIENTED_EDGE('',*,*,#331,.F.);
#252=ORIENTED_EDGE('',*,*,#333,.T.);
#253=ORIENTED_EDGE('',*,*,#332,.F.);
#254=ORIENTED_EDGE('',*,*,#334,.T.);
#255=ORIENTED_EDGE('',*,*,#333,.F.);
#256=ORIENTED_EDGE('',*,*,#335,.T.);
#257=ORIENTED_EDGE('',*,*,#334,.F.);
#258=ORIENTED_EDGE('',*,*,#336,.T.);
#259=ORIENTED_EDGE('',*,*,#335,.F.);
#260=ORIENTED_EDGE('',*,*,#337,.T.);
#261=ORIENTED_EDGE('',*,*,#336,.F.);
#262=ORIENTED_EDGE('',*,*,#326,.F.);
#263=ORIENTED_EDGE('',*,*,#338,.T.);
#264=ORIENTED_EDGE('',*,*,#337,.F.);
#265=ORIENTED_EDGE('',*,*,#339,.T.);
#266=ORIENTED_EDGE('',*,*,#338,.F.);
#267=ORIENTED_EDGE('',*,*,#340,.T.);
#268=ORIENTED_EDGE('',*,*,#339,.F.);
#269=ORIENTED_EDGE('',*,*,#341,.T.);
#270=ORIENTED_EDGE('',*,*,#340,.F.);
#271=ORIENTED_EDGE('',*,*,#342,.T.);
#272=ORIENTED_EDGE('',*,*,#341,.F.);
#273=ORIENTED_EDGE('',*,*,#343,.T.);
#274=ORIENTED_EDGE('',*,*,#342,.F.);
#275=ORIENTED_EDGE('',*,*,#344,.T.);
#276=ORIENTED_EDGE('',*,*,#343,.F.);
#277=ORIENTED_EDGE('',*,*,#344,.F.);
#278=ORIENTED_EDGE('',*,*,#345,.F.);
#279=ORIENTED_EDGE('',*,*,#346,.F.);
#280=ORIENTED_EDGE('',*,*,#347,.F.);
#281=ORIENTED_EDGE('',*,*,#348,.T.);
#282=ORIENTED_EDGE('',*,*,#349,.T.);
#283=ORIENTED_EDGE('',*,*,#346,.T.);
#284=ORIENTED_EDGE('',*,*,#347,.T.);
#285=ORIENTED_EDGE('',*,*,#350,.F.);
#286=ORIENTED_EDGE('',*,*,#351,.T.);
#287=ORIENTED_EDGE('',*,*,#349,.F.);
#288=ORIENTED_EDGE('',*,*,#352,.T.);
#289=ORIENTED_EDGE('',*,*,#351,.F.);
#290=ORIENTED_EDGE('',*,*,#350,.T.);
#291=ORIENTED_EDGE('',*,*,#352,.F.);
#292=ORIENTED_EDGE('',*,*,#348,.F.);
#293=ORIENTED_EDGE('',*,*,#353,.T.);
#294=ORIENTED_EDGE('',*,*,#353,.F.);
#295=ORIENTED_EDGE('',*,*,#345,.T.);
#296=VERTEX_POINT('',#572);
#297=VERTEX_POINT('',#574);
#298=VERTEX_POINT('',#577);
#299=VERTEX_POINT('',#580);
#300=VERTEX_POINT('',#583);
#301=VERTEX_POINT('',#586);
#302=VERTEX_POINT('',#589);
#303=VERTEX_POINT('',#592);
#304=VERTEX_POINT('',#595);
#305=VERTEX_POINT('',#598);
#306=VERTEX_POINT('',#601);
#307=VERTEX_POINT('',#604);
#308=VERTEX_POINT('',#607);
#309=VERTEX_POINT('',#611);
#310=VERTEX_POINT('',#614);
#311=VERTEX_POINT('',#617);
#312=VERTEX_POINT('',#620);
#313=VERTEX_POINT('',#623);
#314=VERTEX_POINT('',#626);
#315=VERTEX_POINT('',#629);
#316=VERTEX_POINT('',#633);
#317=VERTEX_POINT('',#636);
#318=VERTEX_POINT('',#639);
#319=VERTEX_POINT('',#641);
#320=VERTEX_POINT('',#645);
#321=VERTEX_POINT('',#649);
#322=VERTEX_POINT('',#653);
#323=VERTEX_POINT('',#657);
#324=VERTEX_POINT('',#663);
#325=EDGE_CURVE('',#296,#296,#354,.T.);
#326=EDGE_CURVE('',#297,#297,#355,.T.);
#327=EDGE_CURVE('',#298,#298,#356,.T.);
#328=EDGE_CURVE('',#299,#299,#357,.T.);
#329=EDGE_CURVE('',#300,#300,#358,.T.);
#330=EDGE_CURVE('',#301,#301,#359,.T.);
#331=EDGE_CURVE('',#302,#302,#360,.T.);
#332=EDGE_CURVE('',#303,#303,#361,.T.);
#333=EDGE_CURVE('',#304,#304,#362,.T.);
#334=EDGE_CURVE('',#305,#305,#363,.T.);
#335=EDGE_CURVE('',#306,#306,#364,.T.);
#336=EDGE_CURVE('',#307,#307,#365,.T.);
#337=EDGE_CURVE('',#308,#308,#366,.T.);
#338=EDGE_CURVE('',#309,#309,#367,.T.);
#339=EDGE_CURVE('',#310,#310,#368,.T.);
#340=EDGE_CURVE('',#311,#311,#369,.T.);
#341=EDGE_CURVE('',#312,#312,#370,.T.);
#342=EDGE_CURVE('',#313,#313,#371,.T.);
#343=EDGE_CURVE('',#314,#314,#372,.T.);
#344=EDGE_CURVE('',#315,#315,#373,.T.);
#345=EDGE_CURVE('',#316,#316,#374,.T.);
#346=EDGE_CURVE('',#317,#317,#375,.T.);
#347=EDGE_CURVE('',#318,#318,#376,.T.);
#348=EDGE_CURVE('',#319,#319,#377,.T.);
#349=EDGE_CURVE('',#320,#320,#379,.T.);
#350=EDGE_CURVE('',#321,#321,#380,.T.);
#351=EDGE_CURVE('',#322,#322,#381,.T.);
#352=EDGE_CURVE('',#323,#323,#383,.T.);
#353=EDGE_CURVE('',#324,#324,#385,.T.);
#354=CIRCLE('',#388,19.7500000000017);
#355=CIRCLE('',#389,18.7500000000017);
#356=CIRCLE('',#391,19.7499999999999);
#357=CIRCLE('',#393,19.810307379214);
#358=CIRCLE('',#395,20.);
#359=CIRCLE('',#397,20.);
#360=CIRCLE('',#399,19.7636296694843);
#361=CIRCLE('',#401,19.7499999999999);
#362=CIRCLE('',#403,19.7499999999999);
#363=CIRCLE('',#405,20.205669240384);
#364=CIRCLE('',#407,21.);
#365=CIRCLE('',#409,26.3);
#366=CIRCLE('',#411,27.);
#367=CIRCLE('',#414,27.);
#368=CIRCLE('',#416,26.9876796194031);
#369=CIRCLE('',#418,25.0205339676615);
#370=CIRCLE('',#420,25.);
#371=CIRCLE('',#422,25.);
#372=CIRCLE('',#424,24.6119375887471);
#373=CIRCLE('',#426,22.614678519238);
#374=CIRCLE('',#429,0.100000000000029);
#375=CIRCLE('',#431,12.0550505549022);
#376=CIRCLE('',#433,12.5993445503642);
#377=CIRCLE('',#434,12.3406175650085);
#378=CIRCLE('',#435,1.2);
#379=CIRCLE('',#436,23.2819009859536);
#380=CIRCLE('',#437,24.4007025969442);
#381=CIRCLE('',#438,24.5687391006009);
#382=CIRCLE('',#439,1.2);
#383=CIRCLE('',#440,25.5000155584643);
#384=CIRCLE('',#441,1.2);
#385=CIRCLE('',#442,11.8426103920712);
#386=CIRCLE('',#443,1.2);
#387=AXIS2_PLACEMENT_3D('',#570,#444,#445);
#388=AXIS2_PLACEMENT_3D('',#571,#446,#447);
#389=AXIS2_PLACEMENT_3D('',#573,#448,#449);
#390=AXIS2_PLACEMENT_3D('',#575,#450,#451);
#391=AXIS2_PLACEMENT_3D('',#576,#452,#453);
#392=AXIS2_PLACEMENT_3D('',#578,#454,#455);
#393=AXIS2_PLACEMENT_3D('',#579,#456,#457);
#394=AXIS2_PLACEMENT_3D('',#581,#458,#459);
#395=AXIS2_PLACEMENT_3D('',#582,#460,#461);
#396=AXIS2_PLACEMENT_3D('',#584,#462,#463);
#397=AXIS2_PLACEMENT_3D('',#585,#464,#465);
#398=AXIS2_PLACEMENT_3D('',#587,#466,#467);
#399=AXIS2_PLACEMENT_3D('',#588,#468,#469);
#400=AXIS2_PLACEMENT_3D('',#590,#470,#471);
#401=AXIS2_PLACEMENT_3D('',#591,#472,#473);
#402=AXIS2_PLACEMENT_3D('',#593,#474,#475);
#403=AXIS2_PLACEMENT_3D('',#594,#476,#477);
#404=AXIS2_PLACEMENT_3D('',#596,#478,#479);
#405=AXIS2_PLACEMENT_3D('',#597,#480,#481);
#406=AXIS2_PLACEMENT_3D('',#599,#482,#483);
#407=AXIS2_PLACEMENT_3D('',#600,#484,#485);
#408=AXIS2_PLACEMENT_3D('',#602,#486,#487);
#409=AXIS2_PLACEMENT_3D('',#603,#488,#489);
#410=AXIS2_PLACEMENT_3D('',#605,#490,#491);
#411=AXIS2_PLACEMENT_3D('',#606,#492,#493);
#412=AXIS2_PLACEMENT_3D('',#608,#494,#495);
#413=AXIS2_PLACEMENT_3D('',#609,#496,#497);
#414=AXIS2_PLACEMENT_3D('',#610,#498,#499);
#415=AXIS2_PLACEMENT_3D('',#612,#500,#501);
#416=AXIS2_PLACEMENT_3D('',#613,#502,#503);
#417=AXIS2_PLACEMENT_3D('',#615,#504,#505);
#418=AXIS2_PLACEMENT_3D('',#616,#506,#507);
#419=AXIS2_PLACEMENT_3D('',#618,#508,#509);
#420=AXIS2_PLACEMENT_3D('',#619,#510,#511);
#421=AXIS2_PLACEMENT_3D('',#621,#512,#513);
#422=AXIS2_PLACEMENT_3D('',#622,#514,#515);
#423=AXIS2_PLACEMENT_3D('',#624,#516,#517);
#424=AXIS2_PLACEMENT_3D('',#625,#518,#519);
#425=AXIS2_PLACEMENT_3D('',#627,#520,#521);
#426=AXIS2_PLACEMENT_3D('',#628,#522,#523);
#427=AXIS2_PLACEMENT_3D('',#630,#524,#525);
#428=AXIS2_PLACEMENT_3D('',#631,#526,#527);
#429=AXIS2_PLACEMENT_3D('',#632,#528,#529);
#430=AXIS2_PLACEMENT_3D('',#634,#530,#531);
#431=AXIS2_PLACEMENT_3D('',#635,#532,#533);
#432=AXIS2_PLACEMENT_3D('',#637,#534,#535);
#433=AXIS2_PLACEMENT_3D('',#638,#536,#537);
#434=AXIS2_PLACEMENT_3D('',#640,#538,#539);
#435=AXIS2_PLACEMENT_3D('',#642,#540,#541);
#436=AXIS2_PLACEMENT_3D('',#644,#543,#544);
#437=AXIS2_PLACEMENT_3D('',#648,#547,#548);
#438=AXIS2_PLACEMENT_3D('',#652,#551,#552);
#439=AXIS2_PLACEMENT_3D('',#654,#553,#554);
#440=AXIS2_PLACEMENT_3D('',#656,#556,#557);
#441=AXIS2_PLACEMENT_3D('',#660,#560,#561);
#442=AXIS2_PLACEMENT_3D('',#662,#563,#564);
#443=AXIS2_PLACEMENT_3D('',#664,#565,#566);
#444=DIRECTION('',(0.,0.,1.));
#445=DIRECTION('',(1.,0.,0.));
#446=DIRECTION('',(1.,0.,0.));
#447=DIRECTION('',(0.,0.,1.));
#448=DIRECTION('',(-1.,0.,0.));
#449=DIRECTION('',(0.,0.,1.));
#450=DIRECTION('',(-1.,0.,0.));
#451=DIRECTION('',(0.,0.,1.));
#452=DIRECTION('',(1.,0.,0.));
#453=DIRECTION('',(0.,0.,1.));
#454=DIRECTION('',(-1.,0.,0.));
#455=DIRECTION('',(0.,0.,1.));
#456=DIRECTION('',(1.,0.,0.));
#457=DIRECTION('',(0.,0.,1.));
#458=DIRECTION('',(-1.,0.,0.));
#459=DIRECTION('',(0.,0.,1.));
#460=DIRECTION('',(1.,0.,0.));
#461=DIRECTION('',(0.,0.,1.));
#462=DIRECTION('',(-1.,0.,0.));
#463=DIRECTION('',(0.,0.,1.));
#464=DIRECTION('',(1.,0.,0.));
#465=DIRECTION('',(0.,0.,1.));
#466=DIRECTION('',(-1.,0.,0.));
#467=DIRECTION('',(0.,0.,1.));
#468=DIRECTION('',(1.,0.,0.));
#469=DIRECTION('',(0.,0.,1.));
#470=DIRECTION('',(1.,0.,0.));
#471=DIRECTION('',(1.92781062390157E-16,0.,-1.));
#472=DIRECTION('',(1.,0.,0.));
#473=DIRECTION('',(0.,0.,1.));
#474=DIRECTION('',(-1.,0.,0.));
#475=DIRECTION('',(0.,0.,1.));
#476=DIRECTION('',(1.,0.,0.));
#477=DIRECTION('',(0.,0.,1.));
#478=DIRECTION('',(-1.,0.,0.));
#479=DIRECTION('',(0.,0.,1.));
#480=DIRECTION('',(1.,0.,0.));
#481=DIRECTION('',(0.,0.,1.));
#482=DIRECTION('',(-1.,0.,0.));
#483=DIRECTION('',(0.,0.,1.));
#484=DIRECTION('',(1.,0.,0.));
#485=DIRECTION('',(0.,0.,1.));
#486=DIRECTION('',(1.,0.,0.));
#487=DIRECTION('',(3.88974596893818E-18,0.,-1.));
#488=DIRECTION('',(1.,0.,0.));
#489=DIRECTION('',(0.,0.,1.));
#490=DIRECTION('',(-1.,0.,0.));
#491=DIRECTION('',(0.,0.,1.));
#492=DIRECTION('',(1.,0.,0.));
#493=DIRECTION('',(0.,0.,1.));
#494=DIRECTION('',(-1.,0.,0.));
#495=DIRECTION('',(0.,0.,1.));
#496=DIRECTION('',(-1.,0.,0.));
#497=DIRECTION('',(0.,0.,1.));
#498=DIRECTION('',(1.,0.,0.));
#499=DIRECTION('',(0.,0.,1.));
#500=DIRECTION('',(-1.,0.,0.));
#501=DIRECTION('',(0.,0.,1.));
#502=DIRECTION('',(1.,0.,0.));
#503=DIRECTION('',(0.,0.,1.));
#504=DIRECTION('',(-1.,0.,0.));
#505=DIRECTION('',(0.,0.,1.));
#506=DIRECTION('',(1.,0.,0.));
#507=DIRECTION('',(0.,0.,1.));
#508=DIRECTION('',(1.,0.,0.));
#509=DIRECTION('',(2.35422696408133E-16,0.,-1.));
#510=DIRECTION('',(1.,0.,0.));
#511=DIRECTION('',(0.,0.,1.));
#512=DIRECTION('',(-1.,0.,0.));
#513=DIRECTION('',(0.,0.,1.));
#514=DIRECTION('',(1.,0.,0.));
#515=DIRECTION('',(0.,0.,1.));
#516=DIRECTION('',(-1.,0.,0.));
#517=DIRECTION('',(0.,0.,1.));
#518=DIRECTION('',(1.,0.,0.));
#519=DIRECTION('',(0.,0.,1.));
#520=DIRECTION('',(1.,0.,0.));
#521=DIRECTION('',(1.43425251946013E-15,0.,-1.));
#522=DIRECTION('',(1.,0.,0.));
#523=DIRECTION('',(0.,0.,1.));
#524=DIRECTION('',(-1.,0.,0.));
#525=DIRECTION('',(0.,0.,1.));
#526=DIRECTION('',(1.,0.,0.));
#527=DIRECTION('',(0.,0.,-1.));
#528=DIRECTION('',(1.,0.,0.));
#529=DIRECTION('',(0.,0.,-1.));
#530=DIRECTION('',(1.,0.,0.));
#531=DIRECTION('',(0.,0.,-1.));
#532=DIRECTION('',(-1.,0.,0.));
#533=DIRECTION('',(0.,0.,-1.));
#534=DIRECTION('',(1.,0.,0.));
#535=DIRECTION('',(0.,0.,-1.));
#536=DIRECTION('',(1.,0.,0.));
#537=DIRECTION('',(0.,0.,-1.));
#538=DIRECTION('',(1.,0.,0.));
#539=DIRECTION('',(0.,0.,-1.));
#540=DIRECTION('',(5.27355936696949E-16,-0.121869343405148,-0.992546151641322));
#541=DIRECTION('',(0.996917333733128,0.0778742735259316,-0.0095617584805137));
#542=DIRECTION('',(1.,0.,0.));
#543=DIRECTION('',(1.,0.,0.));
#544=DIRECTION('',(0.,0.,-1.));
#545=DIRECTION('',(0.0784590957278454,-0.989486463101343,0.121493660891268));
#546=DIRECTION('',(1.,0.,0.));
#547=DIRECTION('',(1.,0.,0.));
#548=DIRECTION('',(0.,0.,-1.));
#549=DIRECTION('',(-0.0784590957278461,0.989486463101343,-0.121493660891268));
#550=DIRECTION('',(1.,0.,0.));
#551=DIRECTION('',(1.,0.,0.));
#552=DIRECTION('',(0.,0.,-1.));
#553=DIRECTION('',(5.27355936696949E-16,-0.121869343405148,-0.992546151641322));
#554=DIRECTION('',(0.996917333733128,0.0778742735259316,-0.0095617584805137));
#555=DIRECTION('',(1.,0.,0.));
#556=DIRECTION('',(1.,0.,0.));
#557=DIRECTION('',(0.,0.,-1.));
#558=DIRECTION('',(-0.996917333733128,-0.0778742735259306,0.00956175848051447));
#559=DIRECTION('',(1.,0.,0.));
#560=DIRECTION('',(5.27355936696949E-16,-0.121869343405148,-0.992546151641322));
#561=DIRECTION('',(0.996917333733128,0.0778742735259316,-0.0095617584805137));
#562=DIRECTION('',(1.,0.,0.));
#563=DIRECTION('',(1.,0.,0.));
#564=DIRECTION('',(0.,0.,-1.));
#565=DIRECTION('',(-4.02966437406302E-16,-3.81918479210644E-17,-1.));
#566=DIRECTION('',(0.995141863893438,0.0984513622388924,-4.04768811061255E-16));
#567=DIRECTION('',(1.,0.,0.));
#568=DIRECTION('',(-0.0984513622388923,0.995141863893438,0.));
#569=DIRECTION('',(1.,0.,0.));
#570=CARTESIAN_POINT('',(0.,0.,0.));
#571=CARTESIAN_POINT('',(254.,0.,0.));
#572=CARTESIAN_POINT('',(254.,0.,19.7500000000017));
#573=CARTESIAN_POINT('',(255.,0.,0.));
#574=CARTESIAN_POINT('',(255.,0.,18.7500000000017));
#575=CARTESIAN_POINT('',(254.,0.,0.));
#576=CARTESIAN_POINT('',(252.176326980709,0.,0.));
#577=CARTESIAN_POINT('',(252.176326980709,0.,19.7499999999999));
#578=CARTESIAN_POINT('',(0.,0.,0.));
#579=CARTESIAN_POINT('',(251.834306837383,0.,0.));
#580=CARTESIAN_POINT('',(251.834306837383,0.,19.810307379214));
#581=CARTESIAN_POINT('',(252.176326980709,0.,0.));
#582=CARTESIAN_POINT('',(251.313130645136,0.,0.));
#583=CARTESIAN_POINT('',(251.313130645136,0.,20.));
#584=CARTESIAN_POINT('',(251.834306837383,0.,0.));
#585=CARTESIAN_POINT('',(187.,0.,0.));
#586=CARTESIAN_POINT('',(187.,0.,20.));
#587=CARTESIAN_POINT('',(0.,0.,0.));
#588=CARTESIAN_POINT('',(186.117853917114,0.,0.));
#589=CARTESIAN_POINT('',(186.117853917114,0.,19.7636296694843));
#590=CARTESIAN_POINT('',(187.,0.,0.));
#591=CARTESIAN_POINT('',(186.014326299073,0.,0.));
#592=CARTESIAN_POINT('',(186.014326299073,0.,19.7499999999999));
#593=CARTESIAN_POINT('',(186.014326299073,0.,0.));
#594=CARTESIAN_POINT('',(185.28447131951,0.,0.));
#595=CARTESIAN_POINT('',(185.28447131951,0.,19.7499999999999));
#596=CARTESIAN_POINT('',(0.,0.,0.));
#597=CARTESIAN_POINT('',(184.888364092014,0.,0.));
#598=CARTESIAN_POINT('',(184.888364092014,0.,20.205669240384));
#599=CARTESIAN_POINT('',(185.28447131951,0.,0.));
#600=CARTESIAN_POINT('',(185.,0.,0.));
#601=CARTESIAN_POINT('',(185.,0.,21.));
#602=CARTESIAN_POINT('',(184.888364092014,0.,0.));
#603=CARTESIAN_POINT('',(185.,0.,0.));
#604=CARTESIAN_POINT('',(185.,0.,26.3));
#605=CARTESIAN_POINT('',(185.,21.,0.));
#606=CARTESIAN_POINT('',(184.587298334621,0.,0.));
#607=CARTESIAN_POINT('',(184.587298334621,0.,27.));
#608=CARTESIAN_POINT('',(184.2,0.,0.));
#609=CARTESIAN_POINT('',(255.,27.5000000000006,0.));
#610=CARTESIAN_POINT('',(180.136083051562,0.,0.));
#611=CARTESIAN_POINT('',(180.136083051562,0.,27.));
#612=CARTESIAN_POINT('',(0.,0.,0.));
#613=CARTESIAN_POINT('',(179.864475813434,0.,0.));
#614=CARTESIAN_POINT('',(179.864475813434,0.,26.9876796194031));
#615=CARTESIAN_POINT('',(180.136083051562,0.,0.));
#616=CARTESIAN_POINT('',(158.225873644276,0.,0.));
#617=CARTESIAN_POINT('',(158.225873644276,0.,25.0205339676615));
#618=CARTESIAN_POINT('',(179.864475813434,0.,0.));
#619=CARTESIAN_POINT('',(157.773194914064,0.,0.));
#620=CARTESIAN_POINT('',(157.773194914064,0.,25.));
#621=CARTESIAN_POINT('',(157.773194914064,0.,0.));
#622=CARTESIAN_POINT('',(11.,0.,0.));
#623=CARTESIAN_POINT('',(11.,0.,25.));
#624=CARTESIAN_POINT('',(0.,0.,0.));
#625=CARTESIAN_POINT('',(3.59532808751411,0.,0.));
#626=CARTESIAN_POINT('',(3.59532808751411,0.,24.6119375887471));
#627=CARTESIAN_POINT('',(11.,0.,0.));
#628=CARTESIAN_POINT('',(1.7,0.,0.));
#629=CARTESIAN_POINT('',(1.7,0.,22.614678519238));
#630=CARTESIAN_POINT('',(3.7,0.,0.));
#631=CARTESIAN_POINT('',(1.7,22.614678519238,0.));
#632=CARTESIAN_POINT('',(1.17740097397069,0.,0.));
#633=CARTESIAN_POINT('',(1.17740097397069,0.,-0.100000000000029));
#634=CARTESIAN_POINT('',(1.17740097397069,0.,0.));
#635=CARTESIAN_POINT('',(14.3546223949264,0.,0.));
#636=CARTESIAN_POINT('',(14.3546223949264,0.,-12.0550505549022));
#637=CARTESIAN_POINT('',(14.3546223949264,0.,0.));
#638=CARTESIAN_POINT('',(0.0536991995202327,0.,0.));
#639=CARTESIAN_POINT('',(0.0536991995202327,0.,-12.5993445503642));
#640=CARTESIAN_POINT('',(0.0617165434227789,0.,0.));
#641=CARTESIAN_POINT('',(0.0617165434227789,0.,-12.3406175650085));
#642=CARTESIAN_POINT('',(1.25000000000001,-12.0673604802368,3.28370308769704));
#643=CARTESIAN_POINT('',(11.,0.,0.));
#644=CARTESIAN_POINT('',(15.2432803110653,0.,0.));
#645=CARTESIAN_POINT('',(15.2432803110653,0.,-23.2819009859536));
#646=CARTESIAN_POINT('',(14.3546223949264,-11.6147918858941,3.22813465156224));
#647=CARTESIAN_POINT('',(11.,0.,0.));
#648=CARTESIAN_POINT('',(0.9873624386816,0.,0.));
#649=CARTESIAN_POINT('',(0.9873624386816,0.,-24.4007025969442));
#650=CARTESIAN_POINT('',(0.987362438681601,-23.9356985193739,4.74095176247976));
#651=CARTESIAN_POINT('',(11.,0.,0.));
#652=CARTESIAN_POINT('',(14.141130425459,0.,0.));
#653=CARTESIAN_POINT('',(14.141130425459,0.,-24.5687391006009));
#654=CARTESIAN_POINT('',(14.0469795105856,-22.9155455361842,4.615692726385));
#655=CARTESIAN_POINT('',(11.,0.,0.));
#656=CARTESIAN_POINT('',(2.27781415403477,0.,0.));
#657=CARTESIAN_POINT('',(2.27781415403477,0.,-25.5000155584643));
#658=CARTESIAN_POINT('',(14.141130425459,-24.1029292919058,4.76148511945454));
#659=CARTESIAN_POINT('',(11.,0.,0.));
#660=CARTESIAN_POINT('',(2.18366323916137,-23.8422493911428,4.72947765230311));
#661=CARTESIAN_POINT('',(11.,0.,0.));
#662=CARTESIAN_POINT('',(0.00582976332788587,0.,0.));
#663=CARTESIAN_POINT('',(0.00582976332788587,0.,-11.8426103920712));
#664=CARTESIAN_POINT('',(1.20000000000001,11.9603298150186,0.100000000000028));
#665=CARTESIAN_POINT('',(11.,0.,0.));
#666=CARTESIAN_POINT('',(1.17740097397069,-1.40276612210341E-13,0.100000000000028));
#667=CARTESIAN_POINT('',(11.,0.,0.));
#668=(
GEOMETRIC_REPRESENTATION_CONTEXT(3)
GLOBAL_UNCERTAINTY_ASSIGNED_CONTEXT((#669))
GLOBAL_UNIT_ASSIGNED_CONTEXT((#675,#671,#670))
REPRESENTATION_CONTEXT('ATUM-51XD3-SP-140512-light',
'TOP_LEVEL_ASSEMBLY_PART')
);
#669=UNCERTAINTY_MEASURE_WITH_UNIT(LENGTH_MEASURE(2.E-5),#675,
'DISTANCE_ACCURACY_VALUE','Maximum Tolerance applied to model');
#670=(
NAMED_UNIT(*)
SI_UNIT($,.STERADIAN.)
SOLID_ANGLE_UNIT()
);
#671=(
CONVERSION_BASED_UNIT('DEGREE',#673)
NAMED_UNIT(#672)
PLANE_ANGLE_UNIT()
);
#672=DIMENSIONAL_EXPONENTS(0.,0.,0.,0.,0.,0.,0.);
#673=PLANE_ANGLE_MEASURE_WITH_UNIT(PLANE_ANGLE_MEASURE(0.0174532925),#674);
#674=(
NAMED_UNIT(*)
PLANE_ANGLE_UNIT()
SI_UNIT($,.RADIAN.)
);
#675=(
LENGTH_UNIT()
NAMED_UNIT(*)
SI_UNIT(.MILLI.,.METRE.)
);
ENDSEC;
END-ISO-10303-21;
