ISO-10303-21;
HEADER;
/* Generated by software containing ST-Developer
 * from STEP Tools, Inc. (www.steptools.com) 
 */
/* OPTION: using custom schema-name function */

FILE_DESCRIPTION(
/* description */ (''),
/* implementation_level */ '2;1');

FILE_NAME(
/* name */ 'SCLCL-1212-F09.stp',
/* time_stamp */ '2023-10-13T17:48:32+03:00',
/* author */ (''),
/* organization */ (''),
/* preprocessor_version */ 'ST-DEVELOPER v19.4',
/* originating_system */ 'SIEMENS PLM Software NX2306.3001',
/* authorisation */ '');

FILE_SCHEMA (('AUTOMOTIVE_DESIGN { 1 0 10303 214 3 1 1 1 }'));
ENDSEC;

DATA;
#10=SHAPE_REPRESENTATION_RELATIONSHIP('None',
'relationship between SCLCR 1212 F09-None and SCLCR 1212 F09-None',#41,
#11);
#11=ADVANCED_BREP_SHAPE_REPRESENTATION('SCLCR 1212 F09-None',(#51),#580);
#12=CONTEXT_DEPENDENT_SHAPE_REPRESENTATION(#16,#24);
#13=CONTEXT_DEPENDENT_SHAPE_REPRESENTATION(#17,#25);
#14=NEXT_ASSEMBLY_USAGE_OCCURRENCE('1001',' ','CCMT 09T308',#27,#26,$);
#15=NEXT_ASSEMBLY_USAGE_OCCURRENCE('1002',' ','CCMT 09T308',#27,#26,$);
#16=(
REPRESENTATION_RELATIONSHIP(' ',' ',#40,#41)
REPRESENTATION_RELATIONSHIP_WITH_TRANSFORMATION(#18)
SHAPE_REPRESENTATION_RELATIONSHIP()
);
#17=(
REPRESENTATION_RELATIONSHIP(' ',' ',#40,#41)
REPRESENTATION_RELATIONSHIP_WITH_TRANSFORMATION(#19)
SHAPE_REPRESENTATION_RELATIONSHIP()
);
#18=ITEM_DEFINED_TRANSFORMATION(' ',' ',#372,#394);
#19=ITEM_DEFINED_TRANSFORMATION(' ',' ',#372,#395);
#20=SHAPE_DEFINITION_REPRESENTATION(#22,#40);
#21=SHAPE_DEFINITION_REPRESENTATION(#23,#41);
#22=PRODUCT_DEFINITION_SHAPE('','',#26);
#23=PRODUCT_DEFINITION_SHAPE('','',#27);
#24=PRODUCT_DEFINITION_SHAPE(' ','NAUO PRDDFN',#14);
#25=PRODUCT_DEFINITION_SHAPE(' ','NAUO PRDDFN',#15);
#26=PRODUCT_DEFINITION(' ','',#30,#28);
#27=PRODUCT_DEFINITION(' ','',#31,#29);
#28=PRODUCT_DEFINITION_CONTEXT('part definition',#39,'design');
#29=PRODUCT_DEFINITION_CONTEXT('part definition',#39,'design');
#30=PRODUCT_DEFINITION_FORMATION_WITH_SPECIFIED_SOURCE(' ',' ',#34,
 .NOT_KNOWN.);
#31=PRODUCT_DEFINITION_FORMATION_WITH_SPECIFIED_SOURCE(' ',' ',#35,
 .NOT_KNOWN.);
#32=PRODUCT_RELATED_PRODUCT_CATEGORY('part','',(#34));
#33=PRODUCT_RELATED_PRODUCT_CATEGORY('part','',(#35));
#34=PRODUCT('CCMT 09T308','CCMT 09T308',' ',(#36));
#35=PRODUCT('SCLCR 1212 F09','SCLCR 1212 F09',' ',(#37));
#36=PRODUCT_CONTEXT(' ',#39,'mechanical');
#37=PRODUCT_CONTEXT(' ',#39,'mechanical');
#38=APPLICATION_PROTOCOL_DEFINITION('international standard',
'automotive_design',2010,#39);
#39=APPLICATION_CONTEXT(
'core data for automotive mechanical design processes');
#40=SHAPE_REPRESENTATION('CCMT 09T308-MODEL',(#372),#581);
#41=SHAPE_REPRESENTATION('SCLCR 1212 F09-None',(#372,#394,#395),#580);
#42=PRESENTATION_LAYER_ASSIGNMENT('1','Layer 1',(#51));
#43=STYLED_ITEM('',(#44),#51);
#44=PRESENTATION_STYLE_ASSIGNMENT((#45));
#45=SURFACE_STYLE_USAGE(.BOTH.,#46);
#46=SURFACE_SIDE_STYLE('',(#47));
#47=SURFACE_STYLE_FILL_AREA(#48);
#48=FILL_AREA_STYLE('',(#49));
#49=FILL_AREA_STYLE_COLOUR('',#50);
#50=COLOUR_RGB('medium steel',0.611764705882353,0.658823529411765,0.670588235294118);
#51=MANIFOLD_SOLID_BREP('',#52);
#52=CLOSED_SHELL('',(#55,#56,#57,#58,#59,#60,#61,#62,#63,#64,#65,#66,#67,
#68,#69,#70,#71));
#53=CYLINDRICAL_SURFACE('',#378,0.6);
#54=CYLINDRICAL_SURFACE('',#389,3.);
#55=ADVANCED_FACE('',(#87),#72,.T.);
#56=ADVANCED_FACE('',(#88),#73,.F.);
#57=ADVANCED_FACE('',(#89),#53,.T.);
#58=ADVANCED_FACE('',(#90),#74,.F.);
#59=ADVANCED_FACE('',(#91),#75,.T.);
#60=ADVANCED_FACE('',(#92),#76,.T.);
#61=ADVANCED_FACE('',(#93),#77,.T.);
#62=ADVANCED_FACE('',(#94),#78,.F.);
#63=ADVANCED_FACE('',(#95),#79,.T.);
#64=ADVANCED_FACE('',(#96),#80,.T.);
#65=ADVANCED_FACE('',(#97),#81,.T.);
#66=ADVANCED_FACE('',(#98),#82,.T.);
#67=ADVANCED_FACE('',(#99),#54,.T.);
#68=ADVANCED_FACE('',(#100),#83,.F.);
#69=ADVANCED_FACE('',(#101),#84,.T.);
#70=ADVANCED_FACE('',(#102),#85,.T.);
#71=ADVANCED_FACE('',(#103),#86,.T.);
#72=PLANE('',#374);
#73=PLANE('',#375);
#74=PLANE('',#379);
#75=PLANE('',#380);
#76=PLANE('',#381);
#77=PLANE('',#382);
#78=PLANE('',#383);
#79=PLANE('',#384);
#80=PLANE('',#385);
#81=PLANE('',#387);
#82=PLANE('',#388);
#83=PLANE('',#390);
#84=PLANE('',#391);
#85=PLANE('',#392);
#86=PLANE('',#393);
#87=FACE_OUTER_BOUND('',#104,.T.);
#88=FACE_OUTER_BOUND('',#105,.T.);
#89=FACE_OUTER_BOUND('',#106,.T.);
#90=FACE_OUTER_BOUND('',#107,.T.);
#91=FACE_OUTER_BOUND('',#108,.T.);
#92=FACE_OUTER_BOUND('',#109,.T.);
#93=FACE_OUTER_BOUND('',#110,.T.);
#94=FACE_OUTER_BOUND('',#111,.T.);
#95=FACE_OUTER_BOUND('',#112,.T.);
#96=FACE_OUTER_BOUND('',#113,.T.);
#97=FACE_OUTER_BOUND('',#114,.T.);
#98=FACE_OUTER_BOUND('',#115,.T.);
#99=FACE_OUTER_BOUND('',#116,.T.);
#100=FACE_OUTER_BOUND('',#117,.T.);
#101=FACE_OUTER_BOUND('',#118,.T.);
#102=FACE_OUTER_BOUND('',#119,.T.);
#103=FACE_OUTER_BOUND('',#120,.T.);
#104=EDGE_LOOP('',(#125,#126,#127,#128,#129,#130,#131,#132,#133,#134,#135));
#105=EDGE_LOOP('',(#136,#137,#138,#139,#140,#141));
#106=EDGE_LOOP('',(#142,#143,#144,#145));
#107=EDGE_LOOP('',(#146,#147,#148,#149,#150,#151));
#108=EDGE_LOOP('',(#152,#153,#154,#155));
#109=EDGE_LOOP('',(#156,#157,#158,#159,#160,#161));
#110=EDGE_LOOP('',(#162,#163,#164,#165,#166,#167));
#111=EDGE_LOOP('',(#168,#169,#170,#171));
#112=EDGE_LOOP('',(#172,#173,#174,#175));
#113=EDGE_LOOP('',(#176,#177,#178,#179));
#114=EDGE_LOOP('',(#180,#181,#182,#183,#184,#185,#186,#187,#188,#189));
#115=EDGE_LOOP('',(#190,#191,#192,#193));
#116=EDGE_LOOP('',(#194,#195,#196,#197));
#117=EDGE_LOOP('',(#198,#199,#200,#201));
#118=EDGE_LOOP('',(#202,#203,#204,#205,#206));
#119=EDGE_LOOP('',(#207,#208,#209,#210));
#120=EDGE_LOOP('',(#211,#212,#213,#214));
#121=CIRCLE('',#373,3.);
#122=CIRCLE('',#376,0.6);
#123=CIRCLE('',#377,0.6);
#124=CIRCLE('',#386,3.);
#125=ORIENTED_EDGE('',*,*,#245,.T.);
#126=ORIENTED_EDGE('',*,*,#246,.T.);
#127=ORIENTED_EDGE('',*,*,#247,.T.);
#128=ORIENTED_EDGE('',*,*,#248,.T.);
#129=ORIENTED_EDGE('',*,*,#249,.F.);
#130=ORIENTED_EDGE('',*,*,#250,.F.);
#131=ORIENTED_EDGE('',*,*,#251,.F.);
#132=ORIENTED_EDGE('',*,*,#252,.T.);
#133=ORIENTED_EDGE('',*,*,#253,.F.);
#134=ORIENTED_EDGE('',*,*,#254,.T.);
#135=ORIENTED_EDGE('',*,*,#255,.T.);
#136=ORIENTED_EDGE('',*,*,#256,.F.);
#137=ORIENTED_EDGE('',*,*,#254,.F.);
#138=ORIENTED_EDGE('',*,*,#257,.F.);
#139=ORIENTED_EDGE('',*,*,#258,.F.);
#140=ORIENTED_EDGE('',*,*,#259,.T.);
#141=ORIENTED_EDGE('',*,*,#260,.F.);
#142=ORIENTED_EDGE('',*,*,#261,.F.);
#143=ORIENTED_EDGE('',*,*,#259,.F.);
#144=ORIENTED_EDGE('',*,*,#262,.F.);
#145=ORIENTED_EDGE('',*,*,#263,.T.);
#146=ORIENTED_EDGE('',*,*,#264,.F.);
#147=ORIENTED_EDGE('',*,*,#265,.F.);
#148=ORIENTED_EDGE('',*,*,#263,.F.);
#149=ORIENTED_EDGE('',*,*,#266,.F.);
#150=ORIENTED_EDGE('',*,*,#267,.T.);
#151=ORIENTED_EDGE('',*,*,#246,.F.);
#152=ORIENTED_EDGE('',*,*,#253,.T.);
#153=ORIENTED_EDGE('',*,*,#268,.T.);
#154=ORIENTED_EDGE('',*,*,#269,.T.);
#155=ORIENTED_EDGE('',*,*,#257,.T.);
#156=ORIENTED_EDGE('',*,*,#270,.T.);
#157=ORIENTED_EDGE('',*,*,#271,.F.);
#158=ORIENTED_EDGE('',*,*,#272,.F.);
#159=ORIENTED_EDGE('',*,*,#273,.T.);
#160=ORIENTED_EDGE('',*,*,#249,.T.);
#161=ORIENTED_EDGE('',*,*,#274,.T.);
#162=ORIENTED_EDGE('',*,*,#275,.F.);
#163=ORIENTED_EDGE('',*,*,#276,.T.);
#164=ORIENTED_EDGE('',*,*,#277,.T.);
#165=ORIENTED_EDGE('',*,*,#278,.T.);
#166=ORIENTED_EDGE('',*,*,#251,.T.);
#167=ORIENTED_EDGE('',*,*,#279,.T.);
#168=ORIENTED_EDGE('',*,*,#280,.F.);
#169=ORIENTED_EDGE('',*,*,#272,.T.);
#170=ORIENTED_EDGE('',*,*,#281,.T.);
#171=ORIENTED_EDGE('',*,*,#275,.T.);
#172=ORIENTED_EDGE('',*,*,#252,.F.);
#173=ORIENTED_EDGE('',*,*,#278,.F.);
#174=ORIENTED_EDGE('',*,*,#282,.F.);
#175=ORIENTED_EDGE('',*,*,#268,.F.);
#176=ORIENTED_EDGE('',*,*,#281,.F.);
#177=ORIENTED_EDGE('',*,*,#271,.T.);
#178=ORIENTED_EDGE('',*,*,#283,.T.);
#179=ORIENTED_EDGE('',*,*,#276,.F.);
#180=ORIENTED_EDGE('',*,*,#284,.T.);
#181=ORIENTED_EDGE('',*,*,#266,.T.);
#182=ORIENTED_EDGE('',*,*,#262,.T.);
#183=ORIENTED_EDGE('',*,*,#258,.T.);
#184=ORIENTED_EDGE('',*,*,#269,.F.);
#185=ORIENTED_EDGE('',*,*,#282,.T.);
#186=ORIENTED_EDGE('',*,*,#277,.F.);
#187=ORIENTED_EDGE('',*,*,#283,.F.);
#188=ORIENTED_EDGE('',*,*,#270,.F.);
#189=ORIENTED_EDGE('',*,*,#285,.T.);
#190=ORIENTED_EDGE('',*,*,#280,.T.);
#191=ORIENTED_EDGE('',*,*,#279,.F.);
#192=ORIENTED_EDGE('',*,*,#250,.T.);
#193=ORIENTED_EDGE('',*,*,#273,.F.);
#194=ORIENTED_EDGE('',*,*,#286,.F.);
#195=ORIENTED_EDGE('',*,*,#247,.F.);
#196=ORIENTED_EDGE('',*,*,#267,.F.);
#197=ORIENTED_EDGE('',*,*,#284,.F.);
#198=ORIENTED_EDGE('',*,*,#274,.F.);
#199=ORIENTED_EDGE('',*,*,#248,.F.);
#200=ORIENTED_EDGE('',*,*,#286,.T.);
#201=ORIENTED_EDGE('',*,*,#285,.F.);
#202=ORIENTED_EDGE('',*,*,#260,.T.);
#203=ORIENTED_EDGE('',*,*,#261,.T.);
#204=ORIENTED_EDGE('',*,*,#265,.T.);
#205=ORIENTED_EDGE('',*,*,#287,.F.);
#206=ORIENTED_EDGE('',*,*,#288,.F.);
#207=ORIENTED_EDGE('',*,*,#255,.F.);
#208=ORIENTED_EDGE('',*,*,#256,.T.);
#209=ORIENTED_EDGE('',*,*,#288,.T.);
#210=ORIENTED_EDGE('',*,*,#289,.T.);
#211=ORIENTED_EDGE('',*,*,#264,.T.);
#212=ORIENTED_EDGE('',*,*,#245,.F.);
#213=ORIENTED_EDGE('',*,*,#289,.F.);
#214=ORIENTED_EDGE('',*,*,#287,.T.);
#215=VERTEX_POINT('',#487);
#216=VERTEX_POINT('',#488);
#217=VERTEX_POINT('',#490);
#218=VERTEX_POINT('',#492);
#219=VERTEX_POINT('',#494);
#220=VERTEX_POINT('',#496);
#221=VERTEX_POINT('',#498);
#222=VERTEX_POINT('',#500);
#223=VERTEX_POINT('',#502);
#224=VERTEX_POINT('',#504);
#225=VERTEX_POINT('',#506);
#226=VERTEX_POINT('',#510);
#227=VERTEX_POINT('',#512);
#228=VERTEX_POINT('',#514);
#229=VERTEX_POINT('',#516);
#230=VERTEX_POINT('',#520);
#231=VERTEX_POINT('',#522);
#232=VERTEX_POINT('',#526);
#233=VERTEX_POINT('',#529);
#234=VERTEX_POINT('',#533);
#235=VERTEX_POINT('',#537);
#236=VERTEX_POINT('',#538);
#237=VERTEX_POINT('',#540);
#238=VERTEX_POINT('',#542);
#239=VERTEX_POINT('',#547);
#240=VERTEX_POINT('',#548);
#241=VERTEX_POINT('',#550);
#242=VERTEX_POINT('',#552);
#243=VERTEX_POINT('',#564);
#244=VERTEX_POINT('',#572);
#245=EDGE_CURVE('',#215,#216,#290,.T.);
#246=EDGE_CURVE('',#216,#217,#291,.T.);
#247=EDGE_CURVE('',#217,#218,#121,.T.);
#248=EDGE_CURVE('',#218,#219,#292,.T.);
#249=EDGE_CURVE('',#220,#219,#293,.T.);
#250=EDGE_CURVE('',#221,#220,#294,.T.);
#251=EDGE_CURVE('',#222,#221,#295,.T.);
#252=EDGE_CURVE('',#222,#223,#296,.T.);
#253=EDGE_CURVE('',#224,#223,#297,.T.);
#254=EDGE_CURVE('',#224,#225,#298,.T.);
#255=EDGE_CURVE('',#225,#215,#299,.T.);
#256=EDGE_CURVE('',#225,#226,#300,.T.);
#257=EDGE_CURVE('',#227,#224,#301,.T.);
#258=EDGE_CURVE('',#228,#227,#302,.T.);
#259=EDGE_CURVE('',#228,#229,#303,.T.);
#260=EDGE_CURVE('',#226,#229,#304,.T.);
#261=EDGE_CURVE('',#229,#230,#122,.T.);
#262=EDGE_CURVE('',#231,#228,#123,.T.);
#263=EDGE_CURVE('',#231,#230,#305,.T.);
#264=EDGE_CURVE('',#232,#216,#306,.T.);
#265=EDGE_CURVE('',#230,#232,#307,.T.);
#266=EDGE_CURVE('',#233,#231,#308,.T.);
#267=EDGE_CURVE('',#233,#217,#309,.T.);
#268=EDGE_CURVE('',#223,#234,#310,.T.);
#269=EDGE_CURVE('',#234,#227,#311,.T.);
#270=EDGE_CURVE('',#235,#236,#312,.T.);
#271=EDGE_CURVE('',#237,#236,#313,.T.);
#272=EDGE_CURVE('',#238,#237,#314,.T.);
#273=EDGE_CURVE('',#238,#220,#315,.T.);
#274=EDGE_CURVE('',#219,#235,#316,.T.);
#275=EDGE_CURVE('',#239,#240,#317,.T.);
#276=EDGE_CURVE('',#239,#241,#318,.T.);
#277=EDGE_CURVE('',#241,#242,#319,.T.);
#278=EDGE_CURVE('',#242,#222,#320,.T.);
#279=EDGE_CURVE('',#221,#240,#321,.T.);
#280=EDGE_CURVE('',#238,#240,#322,.T.);
#281=EDGE_CURVE('',#237,#239,#323,.T.);
#282=EDGE_CURVE('',#234,#242,#324,.T.);
#283=EDGE_CURVE('',#236,#241,#325,.T.);
#284=EDGE_CURVE('',#243,#233,#124,.T.);
#285=EDGE_CURVE('',#235,#243,#326,.T.);
#286=EDGE_CURVE('',#218,#243,#327,.T.);
#287=EDGE_CURVE('',#244,#232,#328,.T.);
#288=EDGE_CURVE('',#226,#244,#329,.T.);
#289=EDGE_CURVE('',#244,#215,#330,.T.);
#290=LINE('',#486,#331);
#291=LINE('',#489,#332);
#292=LINE('',#493,#333);
#293=LINE('',#495,#334);
#294=LINE('',#497,#335);
#295=LINE('',#499,#336);
#296=LINE('',#501,#337);
#297=LINE('',#503,#338);
#298=LINE('',#505,#339);
#299=LINE('',#507,#340);
#300=LINE('',#509,#341);
#301=LINE('',#511,#342);
#302=LINE('',#513,#343);
#303=LINE('',#515,#344);
#304=LINE('',#517,#345);
#305=LINE('',#523,#346);
#306=LINE('',#525,#347);
#307=LINE('',#527,#348);
#308=LINE('',#528,#349);
#309=LINE('',#530,#350);
#310=LINE('',#532,#351);
#311=LINE('',#534,#352);
#312=LINE('',#536,#353);
#313=LINE('',#539,#354);
#314=LINE('',#541,#355);
#315=LINE('',#543,#356);
#316=LINE('',#544,#357);
#317=LINE('',#546,#358);
#318=LINE('',#549,#359);
#319=LINE('',#551,#360);
#320=LINE('',#553,#361);
#321=LINE('',#554,#362);
#322=LINE('',#556,#363);
#323=LINE('',#557,#364);
#324=LINE('',#559,#365);
#325=LINE('',#561,#366);
#326=LINE('',#565,#367);
#327=LINE('',#568,#368);
#328=LINE('',#571,#369);
#329=LINE('',#573,#370);
#330=LINE('',#575,#371);
#331=VECTOR('',#398,1.);
#332=VECTOR('',#399,1.);
#333=VECTOR('',#402,1.);
#334=VECTOR('',#403,1.);
#335=VECTOR('',#404,1.);
#336=VECTOR('',#405,1.);
#337=VECTOR('',#406,1.);
#338=VECTOR('',#407,1.);
#339=VECTOR('',#408,1.);
#340=VECTOR('',#409,1.);
#341=VECTOR('',#412,1.);
#342=VECTOR('',#413,1.);
#343=VECTOR('',#414,1.);
#344=VECTOR('',#415,1.);
#345=VECTOR('',#416,1.);
#346=VECTOR('',#423,1.);
#347=VECTOR('',#426,1.);
#348=VECTOR('',#427,1.);
#349=VECTOR('',#428,1.);
#350=VECTOR('',#429,1.);
#351=VECTOR('',#432,1.);
#352=VECTOR('',#433,1.);
#353=VECTOR('',#436,1.);
#354=VECTOR('',#437,1.);
#355=VECTOR('',#438,1.);
#356=VECTOR('',#439,1.);
#357=VECTOR('',#440,1.);
#358=VECTOR('',#443,1.);
#359=VECTOR('',#444,1.);
#360=VECTOR('',#445,1.);
#361=VECTOR('',#446,1.);
#362=VECTOR('',#447,1.);
#363=VECTOR('',#450,1.);
#364=VECTOR('',#451,1.);
#365=VECTOR('',#454,1.);
#366=VECTOR('',#457,1.);
#367=VECTOR('',#462,1.);
#368=VECTOR('',#467,1.);
#369=VECTOR('',#472,1.);
#370=VECTOR('',#473,1.);
#371=VECTOR('',#476,1.);
#372=AXIS2_PLACEMENT_3D('',#485,#396,#397);
#373=AXIS2_PLACEMENT_3D('',#491,#400,#401);
#374=AXIS2_PLACEMENT_3D('',#508,#410,#411);
#375=AXIS2_PLACEMENT_3D('',#518,#417,#418);
#376=AXIS2_PLACEMENT_3D('',#519,#419,#420);
#377=AXIS2_PLACEMENT_3D('',#521,#421,#422);
#378=AXIS2_PLACEMENT_3D('',#524,#424,#425);
#379=AXIS2_PLACEMENT_3D('',#531,#430,#431);
#380=AXIS2_PLACEMENT_3D('',#535,#434,#435);
#381=AXIS2_PLACEMENT_3D('',#545,#441,#442);
#382=AXIS2_PLACEMENT_3D('',#555,#448,#449);
#383=AXIS2_PLACEMENT_3D('',#558,#452,#453);
#384=AXIS2_PLACEMENT_3D('',#560,#455,#456);
#385=AXIS2_PLACEMENT_3D('',#562,#458,#459);
#386=AXIS2_PLACEMENT_3D('',#563,#460,#461);
#387=AXIS2_PLACEMENT_3D('',#566,#463,#464);
#388=AXIS2_PLACEMENT_3D('',#567,#465,#466);
#389=AXIS2_PLACEMENT_3D('',#569,#468,#469);
#390=AXIS2_PLACEMENT_3D('',#570,#470,#471);
#391=AXIS2_PLACEMENT_3D('',#574,#474,#475);
#392=AXIS2_PLACEMENT_3D('',#576,#477,#478);
#393=AXIS2_PLACEMENT_3D('',#577,#479,#480);
#394=AXIS2_PLACEMENT_3D('',#578,#481,#482);
#395=AXIS2_PLACEMENT_3D('',#579,#483,#484);
#396=DIRECTION('',(0.,0.,1.));
#397=DIRECTION('',(1.,0.,0.));
#398=DIRECTION('',(-0.996194698091746,0.0871557427476582,0.));
#399=DIRECTION('',(0.0871557427476581,-0.996194698091746,0.));
#400=DIRECTION('',(0.,0.,1.));
#401=DIRECTION('',(1.,0.,0.));
#402=DIRECTION('',(0.707106781186548,-0.707106781186547,0.));
#403=DIRECTION('',(-1.,-1.86816374335964E-16,0.));
#404=DIRECTION('',(-1.9867773143666E-16,-1.,0.));
#405=DIRECTION('',(1.,9.34081871679819E-17,0.));
#406=DIRECTION('',(-0.819152044288992,0.573576436351046,0.));
#407=DIRECTION('',(0.173648177666934,-0.984807753012208,0.));
#408=DIRECTION('',(-0.996194698091746,0.0871557427476579,0.));
#409=DIRECTION('',(0.0871557427476582,-0.996194698091746,0.));
#410=DIRECTION('',(0.,0.,1.));
#411=DIRECTION('',(1.,1.87350135405495E-16,0.));
#412=DIRECTION('',(-0.12325001738945,0.0107829793009498,-0.992317066552267));
#413=DIRECTION('',(0.,0.,1.));
#414=DIRECTION('',(0.996194698091746,-0.0871557427476579,0.));
#415=DIRECTION('',(0.,0.,1.));
#416=DIRECTION('',(-0.996194698091746,0.0871557427476579,0.));
#417=DIRECTION('',(-0.0871557427476579,-0.996194698091746,0.));
#418=DIRECTION('',(-0.996194698091746,0.0871557427476579,0.));
#419=DIRECTION('',(0.,0.,1.));
#420=DIRECTION('',(1.,0.,0.));
#421=DIRECTION('',(0.,0.,-1.));
#422=DIRECTION('',(-1.,0.,0.));
#423=DIRECTION('',(0.,0.,1.));
#424=DIRECTION('',(0.,0.,1.));
#425=DIRECTION('',(1.,0.,0.));
#426=DIRECTION('',(0.0107829793009498,-0.12325001738945,0.992317066552267));
#427=DIRECTION('',(0.0871557427476581,-0.996194698091746,0.));
#428=DIRECTION('',(-0.0871557427476581,0.996194698091746,0.));
#429=DIRECTION('',(0.,0.,1.));
#430=DIRECTION('',(0.996194698091746,0.0871557427476581,0.));
#431=DIRECTION('',(0.0871557427476581,-0.996194698091746,0.));
#432=DIRECTION('',(0.,0.,-1.));
#433=DIRECTION('',(-0.173648177666934,0.984807753012207,0.));
#434=DIRECTION('',(0.984807753012207,0.173648177666934,0.));
#435=DIRECTION('',(0.173648177666934,-0.984807753012208,0.));
#436=DIRECTION('',(1.,1.86816374335964E-16,0.));
#437=DIRECTION('',(0.,0.,-1.));
#438=DIRECTION('',(1.,1.86816374335964E-16,0.));
#439=DIRECTION('',(-0.707106781186547,-1.32099125129644E-16,-0.707106781186548));
#440=DIRECTION('',(0.,0.,-1.));
#441=DIRECTION('',(1.86816374335964E-16,-1.,0.));
#442=DIRECTION('',(0.,0.,1.));
#443=DIRECTION('',(-1.,-9.34081871679819E-17,0.));
#444=DIRECTION('',(0.,0.,-1.));
#445=DIRECTION('',(-1.,-9.34081871679819E-17,0.));
#446=DIRECTION('',(0.,0.,1.));
#447=DIRECTION('',(0.707106781186547,6.60495625648222E-17,0.707106781186548));
#448=DIRECTION('',(-9.34081871679819E-17,1.,0.));
#449=DIRECTION('',(1.,9.36750677027476E-17,0.));
#450=DIRECTION('',(1.9867773143666E-16,1.,0.));
#451=DIRECTION('',(-1.86816374335964E-16,1.,0.));
#452=DIRECTION('',(0.,0.,-1.));
#453=DIRECTION('',(-1.,-1.87350135405495E-16,0.));
#454=DIRECTION('',(0.819152044288992,-0.573576436351046,0.));
#455=DIRECTION('',(0.573576436351046,0.819152044288992,0.));
#456=DIRECTION('',(0.,0.,-1.));
#457=DIRECTION('',(-1.86816374335964E-16,1.,0.));
#458=DIRECTION('',(1.,1.86816374335964E-16,0.));
#459=DIRECTION('',(0.,0.,-1.));
#460=DIRECTION('',(0.,0.,-1.));
#461=DIRECTION('',(-1.,0.,0.));
#462=DIRECTION('',(-0.707106781186548,0.707106781186547,0.));
#463=DIRECTION('',(0.,0.,-1.));
#464=DIRECTION('',(-1.,-1.87350135405495E-16,0.));
#465=DIRECTION('',(-0.707106781186548,1.40486371169622E-16,0.707106781186547));
#466=DIRECTION('',(0.707106781186547,1.31838984174237E-16,0.707106781186548));
#467=DIRECTION('',(0.,0.,-1.));
#468=DIRECTION('',(0.,0.,1.));
#469=DIRECTION('',(1.,0.,0.));
#470=DIRECTION('',(0.707106781186547,0.707106781186548,0.));
#471=DIRECTION('',(0.707106781186548,-0.707106781186547,0.));
#472=DIRECTION('',(-0.996194698091746,0.0871557427476582,0.));
#473=DIRECTION('',(0.0871557427476582,-0.996194698091746,0.));
#474=DIRECTION('',(0.,0.,1.));
#475=DIRECTION('',(1.,1.87350135405495E-16,0.));
#476=DIRECTION('',(0.132671941384344,-0.132671941384344,0.982240455254526));
#477=DIRECTION('',(-0.988769213876451,-0.0865060970576292,0.121869343405147));
#478=DIRECTION('',(0.122327911442424,2.42861286636753E-17,0.992489739031157));
#479=DIRECTION('',(0.0865060970576292,0.988769213876451,0.121869343405147));
#480=DIRECTION('',(-2.25514051876985E-17,0.122327911442424,-0.992489739031157));
#481=DIRECTION('',(0.,0.,1.));
#482=DIRECTION('',(-0.0871557412165079,0.996194698225704,0.));
#483=DIRECTION('',(0.,0.,1.));
#484=DIRECTION('',(0.996194698091746,0.0871557427476579,0.));
#485=CARTESIAN_POINT('',(0.,0.,0.));
#486=CARTESIAN_POINT('',(-0.820609798563248,10.6203870822636,-0.3));
#487=CARTESIAN_POINT('',(10.3575775932921,9.64242240670788,-0.3));
#488=CARTESIAN_POINT('',(1.35395225691394,10.4301375542758,-0.299999999999998));
#489=CARTESIAN_POINT('',(0.628558011066909,18.7214317244295,-0.300000000000002));
#490=CARTESIAN_POINT('',(1.47139545540515,9.08775565291761,-0.300000000000002));
#491=CARTESIAN_POINT('',(4.45997954968039,9.34922288116058,-0.300000000000002));
#492=CARTESIAN_POINT('',(2.33865920612075,7.22790253760094,-0.300000000000002));
#493=CARTESIAN_POINT('',(2.33865920612075,7.22790253760094,-0.300000000000002));
#494=CARTESIAN_POINT('',(5.56656174372168,4.00000000000001,-0.3));
#495=CARTESIAN_POINT('',(80.,4.00000000000002,-0.3));
#496=CARTESIAN_POINT('',(18.,4.00000000000001,-0.3));
#497=CARTESIAN_POINT('',(18.,21.,-0.3));
#498=CARTESIAN_POINT('',(18.,16.,-0.3));
#499=CARTESIAN_POINT('',(15.,16.,-0.3));
#500=CARTESIAN_POINT('',(17.,16.,-0.3));
#501=CARTESIAN_POINT('',(14.7182872358884,17.5976724774602,-0.3));
#502=CARTESIAN_POINT('',(14.7182872358884,17.5976724774602,-0.3));
#503=CARTESIAN_POINT('',(14.2946920771661,20.,-0.3));
#504=CARTESIAN_POINT('',(14.6112011664809,18.2049877560256,-0.3));
#505=CARTESIAN_POINT('',(8.83520849796402,18.7103216351297,-0.300000000000002));
#506=CARTESIAN_POINT('',(9.56986244572425,18.6460477430861,-0.299999999999998));
#507=CARTESIAN_POINT('',(9.37961291773637,20.8206097985633,-0.3));
#508=CARTESIAN_POINT('',(0.,20.,-0.3));
#509=CARTESIAN_POINT('',(5.92621527317002,18.9648255645729,-29.6359250603236));
#510=CARTESIAN_POINT('',(9.11403277286489,18.68592767196,-3.97));
#511=CARTESIAN_POINT('',(14.6112011664809,18.2049877560256,-30.));
#512=CARTESIAN_POINT('',(14.6112011664809,18.2049877560256,-12.));
#513=CARTESIAN_POINT('',(8.83520849796402,18.7103216351297,-12.));
#514=CARTESIAN_POINT('',(1.27856827557055,19.3714419889331,-12.));
#515=CARTESIAN_POINT('',(1.27856827557055,19.3714419889331,-30.));
#516=CARTESIAN_POINT('',(1.27856827557055,19.3714419889331,-3.97));
#517=CARTESIAN_POINT('',(8.83520849796402,18.7103216351297,-3.97));
#518=CARTESIAN_POINT('',(8.83520849796402,18.7103216351297,-30.));
#519=CARTESIAN_POINT('',(1.22627482992196,18.7737251700781,-3.97));
#520=CARTESIAN_POINT('',(0.628558011066909,18.7214317244295,-3.97));
#521=CARTESIAN_POINT('',(1.22627482992196,18.7737251700781,-12.));
#522=CARTESIAN_POINT('',(0.62855801106691,18.7214317244295,-12.));
#523=CARTESIAN_POINT('',(0.62855801106691,18.7214317244295,-30.));
#524=CARTESIAN_POINT('',(1.22627482992196,18.7737251700781,-30.));
#525=CARTESIAN_POINT('',(1.02505477232818,14.1894530053377,-30.5671996293098));
#526=CARTESIAN_POINT('',(1.31407232804002,10.8859672271351,-3.97));
#527=CARTESIAN_POINT('',(0.628558011066909,18.7214317244295,-3.97));
#528=CARTESIAN_POINT('',(0.628558011066909,18.7214317244295,-12.));
#529=CARTESIAN_POINT('',(1.47139545540515,9.08775565291761,-12.));
#530=CARTESIAN_POINT('',(1.47139545540515,9.08775565291761,-30.));
#531=CARTESIAN_POINT('',(0.628558011066909,18.7214317244295,-30.));
#532=CARTESIAN_POINT('',(14.7182872358884,17.5976724774602,0.));
#533=CARTESIAN_POINT('',(14.7182872358884,17.5976724774602,-12.));
#534=CARTESIAN_POINT('',(14.2946920771661,20.,-12.));
#535=CARTESIAN_POINT('',(14.2946920771661,20.,-12.));
#536=CARTESIAN_POINT('',(80.,4.00000000000002,-12.));
#537=CARTESIAN_POINT('',(5.56656174372168,4.00000000000001,-12.));
#538=CARTESIAN_POINT('',(80.,4.00000000000001,-12.));
#539=CARTESIAN_POINT('',(80.,4.00000000000001,-12.));
#540=CARTESIAN_POINT('',(80.,4.00000000000001,0.));
#541=CARTESIAN_POINT('',(80.,4.00000000000002,0.));
#542=CARTESIAN_POINT('',(18.3,4.,0.));
#543=CARTESIAN_POINT('',(43.15,4.00000000000001,24.85));
#544=CARTESIAN_POINT('',(5.56656174372168,4.,-30.));
#545=CARTESIAN_POINT('',(80.,4.00000000000002,-12.));
#546=CARTESIAN_POINT('',(15.,16.,0.));
#547=CARTESIAN_POINT('',(80.,16.,0.));
#548=CARTESIAN_POINT('',(18.3,16.,0.));
#549=CARTESIAN_POINT('',(80.,16.,-12.));
#550=CARTESIAN_POINT('',(80.,16.,-12.));
#551=CARTESIAN_POINT('',(15.,16.,-12.));
#552=CARTESIAN_POINT('',(17.,16.,-12.));
#553=CARTESIAN_POINT('',(17.,16.,-12.));
#554=CARTESIAN_POINT('',(10.65,16.,-7.65000000000001));
#555=CARTESIAN_POINT('',(15.,16.,-12.));
#556=CARTESIAN_POINT('',(18.3,20.,0.));
#557=CARTESIAN_POINT('',(80.,16.,0.));
#558=CARTESIAN_POINT('',(0.,20.,0.));
#559=CARTESIAN_POINT('',(14.7182872358884,17.5976724774602,-12.));
#560=CARTESIAN_POINT('',(14.7182872358884,17.5976724774602,-12.));
#561=CARTESIAN_POINT('',(80.,16.,-12.));
#562=CARTESIAN_POINT('',(80.,16.,-12.));
#563=CARTESIAN_POINT('',(4.45997954968039,9.34922288116058,-12.));
#564=CARTESIAN_POINT('',(2.33865920612075,7.22790253760094,-12.));
#565=CARTESIAN_POINT('',(2.33865920612075,7.22790253760094,-12.));
#566=CARTESIAN_POINT('',(0.,20.,-12.));
#567=CARTESIAN_POINT('',(18.,21.,-0.3));
#568=CARTESIAN_POINT('',(2.33865920612075,7.22790253760094,-30.));
#569=CARTESIAN_POINT('',(4.45997954968039,9.34922288116058,-30.));
#570=CARTESIAN_POINT('',(2.33865920612075,7.22790253760094,-30.));
#571=CARTESIAN_POINT('',(9.49080840286859,10.1705955159442,-3.97));
#572=CARTESIAN_POINT('',(9.86186799155884,10.1381320084412,-3.97));
#573=CARTESIAN_POINT('',(9.01668248624379,19.798646539728,-3.97));
#574=CARTESIAN_POINT('',(0.800050294101187,19.1999497058988,-3.97));
#575=CARTESIAN_POINT('',(9.85476524095687,10.1452347590431,-4.02258541415801));
#576=CARTESIAN_POINT('',(9.01668248624379,19.798646539728,-3.97));
#577=CARTESIAN_POINT('',(9.49080840286859,10.1705955159442,-3.97));
#578=CARTESIAN_POINT('',(5.15904940707113,14.8409505929289,6.66133814775094E-16));
#579=CARTESIAN_POINT('',(5.15904940707113,5.15904940707113,6.66133814775094E-16));
#580=(
GEOMETRIC_REPRESENTATION_CONTEXT(3)
GLOBAL_UNCERTAINTY_ASSIGNED_CONTEXT((#582))
GLOBAL_UNIT_ASSIGNED_CONTEXT((#589,#585,#584))
REPRESENTATION_CONTEXT('SCLCL-1212-F09','TOP_LEVEL_ASSEMBLY_PART')
);
#581=(
GEOMETRIC_REPRESENTATION_CONTEXT(3)
GLOBAL_UNCERTAINTY_ASSIGNED_CONTEXT((#583))
GLOBAL_UNIT_ASSIGNED_CONTEXT((#589,#585,#584))
REPRESENTATION_CONTEXT('CCMT 09T308','COMPONENT_PART')
);
#582=UNCERTAINTY_MEASURE_WITH_UNIT(LENGTH_MEASURE(2.E-5),#589,
'DISTANCE_ACCURACY_VALUE','Maximum Tolerance applied to model');
#583=UNCERTAINTY_MEASURE_WITH_UNIT(LENGTH_MEASURE(2.E-8),#589,
'DISTANCE_ACCURACY_VALUE','Maximum Tolerance applied to model');
#584=(
NAMED_UNIT(*)
SI_UNIT($,.STERADIAN.)
SOLID_ANGLE_UNIT()
);
#585=(
CONVERSION_BASED_UNIT('DEGREE',#587)
NAMED_UNIT(#586)
PLANE_ANGLE_UNIT()
);
#586=DIMENSIONAL_EXPONENTS(0.,0.,0.,0.,0.,0.,0.);
#587=PLANE_ANGLE_MEASURE_WITH_UNIT(PLANE_ANGLE_MEASURE(0.0174532925),#588);
#588=(
NAMED_UNIT(*)
PLANE_ANGLE_UNIT()
SI_UNIT($,.RADIAN.)
);
#589=(
LENGTH_UNIT()
NAMED_UNIT(*)
SI_UNIT(.MILLI.,.METRE.)
);
ENDSEC;
END-ISO-10303-21;
