ISO-10303-21;
HEADER;
/* Generated by software containing ST-Developer
 * from STEP Tools, Inc. (www.steptools.com) 
 */
/* OPTION: using custom schema-name function */

FILE_DESCRIPTION(
/* description */ (''),
/* implementation_level */ '2;1');

FILE_NAME(
/* name */ 'SCLCR-1212-F09.stp',
/* time_stamp */ '2023-10-13T17:47:11+03:00',
/* author */ (''),
/* organization */ (''),
/* preprocessor_version */ 'ST-DEVELOPER v19.4',
/* originating_system */ 'SIEMENS PLM Software NX2306.3001',
/* authorisation */ '');

FILE_SCHEMA (('AUTOMOTIVE_DESIGN { 1 0 10303 214 3 1 1 1 }'));
ENDSEC;

DATA;
#10=SHAPE_REPRESENTATION_RELATIONSHIP('None',
'relationship between SCLCR 1212 F09-None and SCLCR 1212 F09-None',#36,
#11);
#11=ADVANCED_BREP_SHAPE_REPRESENTATION('SCLCR 1212 F09-None',(#46),#571);
#12=CONTEXT_DEPENDENT_SHAPE_REPRESENTATION(#14,#20);
#13=NEXT_ASSEMBLY_USAGE_OCCURRENCE('1001',' ','CCMT 09T308',#22,#21,$);
#14=(
REPRESENTATION_RELATIONSHIP(' ',' ',#35,#36)
REPRESENTATION_RELATIONSHIP_WITH_TRANSFORMATION(#15)
SHAPE_REPRESENTATION_RELATIONSHIP()
);
#15=ITEM_DEFINED_TRANSFORMATION(' ',' ',#367,#389);
#16=SHAPE_DEFINITION_REPRESENTATION(#18,#35);
#17=SHAPE_DEFINITION_REPRESENTATION(#19,#36);
#18=PRODUCT_DEFINITION_SHAPE('','',#21);
#19=PRODUCT_DEFINITION_SHAPE('','',#22);
#20=PRODUCT_DEFINITION_SHAPE(' ','NAUO PRDDFN',#13);
#21=PRODUCT_DEFINITION(' ','',#25,#23);
#22=PRODUCT_DEFINITION(' ','',#26,#24);
#23=PRODUCT_DEFINITION_CONTEXT('part definition',#34,'design');
#24=PRODUCT_DEFINITION_CONTEXT('part definition',#34,'design');
#25=PRODUCT_DEFINITION_FORMATION_WITH_SPECIFIED_SOURCE(' ',' ',#29,
 .NOT_KNOWN.);
#26=PRODUCT_DEFINITION_FORMATION_WITH_SPECIFIED_SOURCE(' ',' ',#30,
 .NOT_KNOWN.);
#27=PRODUCT_RELATED_PRODUCT_CATEGORY('part','',(#29));
#28=PRODUCT_RELATED_PRODUCT_CATEGORY('part','',(#30));
#29=PRODUCT('CCMT 09T308','CCMT 09T308',' ',(#31));
#30=PRODUCT('SCLCR 1212 F09','SCLCR 1212 F09',' ',(#32));
#31=PRODUCT_CONTEXT(' ',#34,'mechanical');
#32=PRODUCT_CONTEXT(' ',#34,'mechanical');
#33=APPLICATION_PROTOCOL_DEFINITION('international standard',
'automotive_design',2010,#34);
#34=APPLICATION_CONTEXT(
'core data for automotive mechanical design processes');
#35=SHAPE_REPRESENTATION('CCMT 09T308-MODEL',(#367),#572);
#36=SHAPE_REPRESENTATION('SCLCR 1212 F09-None',(#367,#389),#571);
#37=PRESENTATION_LAYER_ASSIGNMENT('1','Layer 1',(#46));
#38=STYLED_ITEM('',(#39),#46);
#39=PRESENTATION_STYLE_ASSIGNMENT((#40));
#40=SURFACE_STYLE_USAGE(.BOTH.,#41);
#41=SURFACE_SIDE_STYLE('',(#42));
#42=SURFACE_STYLE_FILL_AREA(#43);
#43=FILL_AREA_STYLE('',(#44));
#44=FILL_AREA_STYLE_COLOUR('',#45);
#45=COLOUR_RGB('light gray',0.8,0.8,0.8);
#46=MANIFOLD_SOLID_BREP('',#47);
#47=CLOSED_SHELL('',(#50,#51,#52,#53,#54,#55,#56,#57,#58,#59,#60,#61,#62,
#63,#64,#65,#66));
#48=CYLINDRICAL_SURFACE('',#373,0.6);
#49=CYLINDRICAL_SURFACE('',#384,3.);
#50=ADVANCED_FACE('',(#82),#67,.T.);
#51=ADVANCED_FACE('',(#83),#68,.F.);
#52=ADVANCED_FACE('',(#84),#48,.T.);
#53=ADVANCED_FACE('',(#85),#69,.F.);
#54=ADVANCED_FACE('',(#86),#70,.T.);
#55=ADVANCED_FACE('',(#87),#71,.T.);
#56=ADVANCED_FACE('',(#88),#72,.T.);
#57=ADVANCED_FACE('',(#89),#73,.F.);
#58=ADVANCED_FACE('',(#90),#74,.T.);
#59=ADVANCED_FACE('',(#91),#75,.T.);
#60=ADVANCED_FACE('',(#92),#76,.T.);
#61=ADVANCED_FACE('',(#93),#77,.T.);
#62=ADVANCED_FACE('',(#94),#49,.T.);
#63=ADVANCED_FACE('',(#95),#78,.F.);
#64=ADVANCED_FACE('',(#96),#79,.T.);
#65=ADVANCED_FACE('',(#97),#80,.T.);
#66=ADVANCED_FACE('',(#98),#81,.T.);
#67=PLANE('',#369);
#68=PLANE('',#370);
#69=PLANE('',#374);
#70=PLANE('',#375);
#71=PLANE('',#376);
#72=PLANE('',#377);
#73=PLANE('',#378);
#74=PLANE('',#379);
#75=PLANE('',#380);
#76=PLANE('',#382);
#77=PLANE('',#383);
#78=PLANE('',#385);
#79=PLANE('',#386);
#80=PLANE('',#387);
#81=PLANE('',#388);
#82=FACE_OUTER_BOUND('',#99,.T.);
#83=FACE_OUTER_BOUND('',#100,.T.);
#84=FACE_OUTER_BOUND('',#101,.T.);
#85=FACE_OUTER_BOUND('',#102,.T.);
#86=FACE_OUTER_BOUND('',#103,.T.);
#87=FACE_OUTER_BOUND('',#104,.T.);
#88=FACE_OUTER_BOUND('',#105,.T.);
#89=FACE_OUTER_BOUND('',#106,.T.);
#90=FACE_OUTER_BOUND('',#107,.T.);
#91=FACE_OUTER_BOUND('',#108,.T.);
#92=FACE_OUTER_BOUND('',#109,.T.);
#93=FACE_OUTER_BOUND('',#110,.T.);
#94=FACE_OUTER_BOUND('',#111,.T.);
#95=FACE_OUTER_BOUND('',#112,.T.);
#96=FACE_OUTER_BOUND('',#113,.T.);
#97=FACE_OUTER_BOUND('',#114,.T.);
#98=FACE_OUTER_BOUND('',#115,.T.);
#99=EDGE_LOOP('',(#120,#121,#122,#123,#124,#125,#126,#127,#128,#129,#130));
#100=EDGE_LOOP('',(#131,#132,#133,#134,#135,#136));
#101=EDGE_LOOP('',(#137,#138,#139,#140));
#102=EDGE_LOOP('',(#141,#142,#143,#144,#145,#146));
#103=EDGE_LOOP('',(#147,#148,#149,#150));
#104=EDGE_LOOP('',(#151,#152,#153,#154,#155,#156));
#105=EDGE_LOOP('',(#157,#158,#159,#160,#161,#162));
#106=EDGE_LOOP('',(#163,#164,#165,#166));
#107=EDGE_LOOP('',(#167,#168,#169,#170));
#108=EDGE_LOOP('',(#171,#172,#173,#174));
#109=EDGE_LOOP('',(#175,#176,#177,#178,#179,#180,#181,#182,#183,#184));
#110=EDGE_LOOP('',(#185,#186,#187,#188));
#111=EDGE_LOOP('',(#189,#190,#191,#192));
#112=EDGE_LOOP('',(#193,#194,#195,#196));
#113=EDGE_LOOP('',(#197,#198,#199,#200,#201));
#114=EDGE_LOOP('',(#202,#203,#204,#205));
#115=EDGE_LOOP('',(#206,#207,#208,#209));
#116=CIRCLE('',#368,3.);
#117=CIRCLE('',#371,0.6);
#118=CIRCLE('',#372,0.6);
#119=CIRCLE('',#381,3.);
#120=ORIENTED_EDGE('',*,*,#240,.T.);
#121=ORIENTED_EDGE('',*,*,#241,.T.);
#122=ORIENTED_EDGE('',*,*,#242,.T.);
#123=ORIENTED_EDGE('',*,*,#243,.F.);
#124=ORIENTED_EDGE('',*,*,#244,.T.);
#125=ORIENTED_EDGE('',*,*,#245,.F.);
#126=ORIENTED_EDGE('',*,*,#246,.F.);
#127=ORIENTED_EDGE('',*,*,#247,.F.);
#128=ORIENTED_EDGE('',*,*,#248,.T.);
#129=ORIENTED_EDGE('',*,*,#249,.T.);
#130=ORIENTED_EDGE('',*,*,#250,.T.);
#131=ORIENTED_EDGE('',*,*,#251,.F.);
#132=ORIENTED_EDGE('',*,*,#252,.F.);
#133=ORIENTED_EDGE('',*,*,#253,.T.);
#134=ORIENTED_EDGE('',*,*,#254,.F.);
#135=ORIENTED_EDGE('',*,*,#255,.F.);
#136=ORIENTED_EDGE('',*,*,#242,.F.);
#137=ORIENTED_EDGE('',*,*,#256,.F.);
#138=ORIENTED_EDGE('',*,*,#257,.T.);
#139=ORIENTED_EDGE('',*,*,#258,.F.);
#140=ORIENTED_EDGE('',*,*,#253,.F.);
#141=ORIENTED_EDGE('',*,*,#259,.F.);
#142=ORIENTED_EDGE('',*,*,#250,.F.);
#143=ORIENTED_EDGE('',*,*,#260,.T.);
#144=ORIENTED_EDGE('',*,*,#261,.F.);
#145=ORIENTED_EDGE('',*,*,#257,.F.);
#146=ORIENTED_EDGE('',*,*,#262,.F.);
#147=ORIENTED_EDGE('',*,*,#243,.T.);
#148=ORIENTED_EDGE('',*,*,#255,.T.);
#149=ORIENTED_EDGE('',*,*,#263,.T.);
#150=ORIENTED_EDGE('',*,*,#264,.T.);
#151=ORIENTED_EDGE('',*,*,#265,.T.);
#152=ORIENTED_EDGE('',*,*,#266,.T.);
#153=ORIENTED_EDGE('',*,*,#247,.T.);
#154=ORIENTED_EDGE('',*,*,#267,.T.);
#155=ORIENTED_EDGE('',*,*,#268,.F.);
#156=ORIENTED_EDGE('',*,*,#269,.F.);
#157=ORIENTED_EDGE('',*,*,#270,.F.);
#158=ORIENTED_EDGE('',*,*,#271,.T.);
#159=ORIENTED_EDGE('',*,*,#245,.T.);
#160=ORIENTED_EDGE('',*,*,#272,.T.);
#161=ORIENTED_EDGE('',*,*,#273,.T.);
#162=ORIENTED_EDGE('',*,*,#274,.T.);
#163=ORIENTED_EDGE('',*,*,#275,.F.);
#164=ORIENTED_EDGE('',*,*,#270,.T.);
#165=ORIENTED_EDGE('',*,*,#276,.T.);
#166=ORIENTED_EDGE('',*,*,#268,.T.);
#167=ORIENTED_EDGE('',*,*,#244,.F.);
#168=ORIENTED_EDGE('',*,*,#264,.F.);
#169=ORIENTED_EDGE('',*,*,#277,.F.);
#170=ORIENTED_EDGE('',*,*,#272,.F.);
#171=ORIENTED_EDGE('',*,*,#276,.F.);
#172=ORIENTED_EDGE('',*,*,#274,.F.);
#173=ORIENTED_EDGE('',*,*,#278,.T.);
#174=ORIENTED_EDGE('',*,*,#269,.T.);
#175=ORIENTED_EDGE('',*,*,#279,.T.);
#176=ORIENTED_EDGE('',*,*,#280,.T.);
#177=ORIENTED_EDGE('',*,*,#265,.F.);
#178=ORIENTED_EDGE('',*,*,#278,.F.);
#179=ORIENTED_EDGE('',*,*,#273,.F.);
#180=ORIENTED_EDGE('',*,*,#277,.T.);
#181=ORIENTED_EDGE('',*,*,#263,.F.);
#182=ORIENTED_EDGE('',*,*,#254,.T.);
#183=ORIENTED_EDGE('',*,*,#258,.T.);
#184=ORIENTED_EDGE('',*,*,#261,.T.);
#185=ORIENTED_EDGE('',*,*,#275,.T.);
#186=ORIENTED_EDGE('',*,*,#267,.F.);
#187=ORIENTED_EDGE('',*,*,#246,.T.);
#188=ORIENTED_EDGE('',*,*,#271,.F.);
#189=ORIENTED_EDGE('',*,*,#281,.F.);
#190=ORIENTED_EDGE('',*,*,#279,.F.);
#191=ORIENTED_EDGE('',*,*,#260,.F.);
#192=ORIENTED_EDGE('',*,*,#249,.F.);
#193=ORIENTED_EDGE('',*,*,#266,.F.);
#194=ORIENTED_EDGE('',*,*,#280,.F.);
#195=ORIENTED_EDGE('',*,*,#281,.T.);
#196=ORIENTED_EDGE('',*,*,#248,.F.);
#197=ORIENTED_EDGE('',*,*,#252,.T.);
#198=ORIENTED_EDGE('',*,*,#282,.F.);
#199=ORIENTED_EDGE('',*,*,#283,.F.);
#200=ORIENTED_EDGE('',*,*,#262,.T.);
#201=ORIENTED_EDGE('',*,*,#256,.T.);
#202=ORIENTED_EDGE('',*,*,#241,.F.);
#203=ORIENTED_EDGE('',*,*,#284,.T.);
#204=ORIENTED_EDGE('',*,*,#282,.T.);
#205=ORIENTED_EDGE('',*,*,#251,.T.);
#206=ORIENTED_EDGE('',*,*,#259,.T.);
#207=ORIENTED_EDGE('',*,*,#283,.T.);
#208=ORIENTED_EDGE('',*,*,#284,.F.);
#209=ORIENTED_EDGE('',*,*,#240,.F.);
#210=VERTEX_POINT('',#479);
#211=VERTEX_POINT('',#480);
#212=VERTEX_POINT('',#482);
#213=VERTEX_POINT('',#484);
#214=VERTEX_POINT('',#486);
#215=VERTEX_POINT('',#488);
#216=VERTEX_POINT('',#490);
#217=VERTEX_POINT('',#492);
#218=VERTEX_POINT('',#494);
#219=VERTEX_POINT('',#496);
#220=VERTEX_POINT('',#498);
#221=VERTEX_POINT('',#502);
#222=VERTEX_POINT('',#504);
#223=VERTEX_POINT('',#506);
#224=VERTEX_POINT('',#508);
#225=VERTEX_POINT('',#512);
#226=VERTEX_POINT('',#514);
#227=VERTEX_POINT('',#518);
#228=VERTEX_POINT('',#520);
#229=VERTEX_POINT('',#525);
#230=VERTEX_POINT('',#529);
#231=VERTEX_POINT('',#530);
#232=VERTEX_POINT('',#533);
#233=VERTEX_POINT('',#535);
#234=VERTEX_POINT('',#539);
#235=VERTEX_POINT('',#540);
#236=VERTEX_POINT('',#543);
#237=VERTEX_POINT('',#545);
#238=VERTEX_POINT('',#556);
#239=VERTEX_POINT('',#564);
#240=EDGE_CURVE('',#210,#211,#285,.T.);
#241=EDGE_CURVE('',#211,#212,#286,.T.);
#242=EDGE_CURVE('',#212,#213,#287,.T.);
#243=EDGE_CURVE('',#214,#213,#288,.T.);
#244=EDGE_CURVE('',#214,#215,#289,.T.);
#245=EDGE_CURVE('',#216,#215,#290,.T.);
#246=EDGE_CURVE('',#217,#216,#291,.T.);
#247=EDGE_CURVE('',#218,#217,#292,.T.);
#248=EDGE_CURVE('',#218,#219,#293,.T.);
#249=EDGE_CURVE('',#219,#220,#116,.T.);
#250=EDGE_CURVE('',#220,#210,#294,.T.);
#251=EDGE_CURVE('',#221,#212,#295,.T.);
#252=EDGE_CURVE('',#222,#221,#296,.T.);
#253=EDGE_CURVE('',#222,#223,#297,.T.);
#254=EDGE_CURVE('',#224,#223,#298,.T.);
#255=EDGE_CURVE('',#213,#224,#299,.T.);
#256=EDGE_CURVE('',#225,#222,#117,.T.);
#257=EDGE_CURVE('',#225,#226,#300,.T.);
#258=EDGE_CURVE('',#223,#226,#118,.T.);
#259=EDGE_CURVE('',#210,#227,#301,.T.);
#260=EDGE_CURVE('',#220,#228,#302,.T.);
#261=EDGE_CURVE('',#226,#228,#303,.T.);
#262=EDGE_CURVE('',#227,#225,#304,.T.);
#263=EDGE_CURVE('',#224,#229,#305,.T.);
#264=EDGE_CURVE('',#229,#214,#306,.T.);
#265=EDGE_CURVE('',#230,#231,#307,.T.);
#266=EDGE_CURVE('',#231,#218,#308,.T.);
#267=EDGE_CURVE('',#217,#232,#309,.T.);
#268=EDGE_CURVE('',#233,#232,#310,.T.);
#269=EDGE_CURVE('',#230,#233,#311,.T.);
#270=EDGE_CURVE('',#234,#235,#312,.T.);
#271=EDGE_CURVE('',#234,#216,#313,.T.);
#272=EDGE_CURVE('',#215,#236,#314,.T.);
#273=EDGE_CURVE('',#236,#237,#315,.T.);
#274=EDGE_CURVE('',#237,#235,#316,.T.);
#275=EDGE_CURVE('',#234,#232,#317,.T.);
#276=EDGE_CURVE('',#235,#233,#318,.T.);
#277=EDGE_CURVE('',#236,#229,#319,.T.);
#278=EDGE_CURVE('',#237,#230,#320,.T.);
#279=EDGE_CURVE('',#228,#238,#119,.T.);
#280=EDGE_CURVE('',#238,#231,#321,.T.);
#281=EDGE_CURVE('',#238,#219,#322,.T.);
#282=EDGE_CURVE('',#239,#221,#323,.T.);
#283=EDGE_CURVE('',#227,#239,#324,.T.);
#284=EDGE_CURVE('',#211,#239,#325,.T.);
#285=LINE('',#478,#326);
#286=LINE('',#481,#327);
#287=LINE('',#483,#328);
#288=LINE('',#485,#329);
#289=LINE('',#487,#330);
#290=LINE('',#489,#331);
#291=LINE('',#491,#332);
#292=LINE('',#493,#333);
#293=LINE('',#495,#334);
#294=LINE('',#499,#335);
#295=LINE('',#501,#336);
#296=LINE('',#503,#337);
#297=LINE('',#505,#338);
#298=LINE('',#507,#339);
#299=LINE('',#509,#340);
#300=LINE('',#513,#341);
#301=LINE('',#517,#342);
#302=LINE('',#519,#343);
#303=LINE('',#521,#344);
#304=LINE('',#522,#345);
#305=LINE('',#524,#346);
#306=LINE('',#526,#347);
#307=LINE('',#528,#348);
#308=LINE('',#531,#349);
#309=LINE('',#532,#350);
#310=LINE('',#534,#351);
#311=LINE('',#536,#352);
#312=LINE('',#538,#353);
#313=LINE('',#541,#354);
#314=LINE('',#542,#355);
#315=LINE('',#544,#356);
#316=LINE('',#546,#357);
#317=LINE('',#548,#358);
#318=LINE('',#549,#359);
#319=LINE('',#551,#360);
#320=LINE('',#553,#361);
#321=LINE('',#557,#362);
#322=LINE('',#560,#363);
#323=LINE('',#563,#364);
#324=LINE('',#565,#365);
#325=LINE('',#567,#366);
#326=VECTOR('',#392,1.);
#327=VECTOR('',#393,1.);
#328=VECTOR('',#394,1.);
#329=VECTOR('',#395,1.);
#330=VECTOR('',#396,1.);
#331=VECTOR('',#397,1.);
#332=VECTOR('',#398,1.);
#333=VECTOR('',#399,1.);
#334=VECTOR('',#400,1.);
#335=VECTOR('',#403,1.);
#336=VECTOR('',#406,1.);
#337=VECTOR('',#407,1.);
#338=VECTOR('',#408,1.);
#339=VECTOR('',#409,1.);
#340=VECTOR('',#410,1.);
#341=VECTOR('',#415,1.);
#342=VECTOR('',#420,1.);
#343=VECTOR('',#421,1.);
#344=VECTOR('',#422,1.);
#345=VECTOR('',#423,1.);
#346=VECTOR('',#426,1.);
#347=VECTOR('',#427,1.);
#348=VECTOR('',#430,1.);
#349=VECTOR('',#431,1.);
#350=VECTOR('',#432,1.);
#351=VECTOR('',#433,1.);
#352=VECTOR('',#434,1.);
#353=VECTOR('',#437,1.);
#354=VECTOR('',#438,1.);
#355=VECTOR('',#439,1.);
#356=VECTOR('',#440,1.);
#357=VECTOR('',#441,1.);
#358=VECTOR('',#444,1.);
#359=VECTOR('',#445,1.);
#360=VECTOR('',#448,1.);
#361=VECTOR('',#451,1.);
#362=VECTOR('',#456,1.);
#363=VECTOR('',#461,1.);
#364=VECTOR('',#466,1.);
#365=VECTOR('',#467,1.);
#366=VECTOR('',#470,1.);
#367=AXIS2_PLACEMENT_3D('',#477,#390,#391);
#368=AXIS2_PLACEMENT_3D('',#497,#401,#402);
#369=AXIS2_PLACEMENT_3D('',#500,#404,#405);
#370=AXIS2_PLACEMENT_3D('',#510,#411,#412);
#371=AXIS2_PLACEMENT_3D('',#511,#413,#414);
#372=AXIS2_PLACEMENT_3D('',#515,#416,#417);
#373=AXIS2_PLACEMENT_3D('',#516,#418,#419);
#374=AXIS2_PLACEMENT_3D('',#523,#424,#425);
#375=AXIS2_PLACEMENT_3D('',#527,#428,#429);
#376=AXIS2_PLACEMENT_3D('',#537,#435,#436);
#377=AXIS2_PLACEMENT_3D('',#547,#442,#443);
#378=AXIS2_PLACEMENT_3D('',#550,#446,#447);
#379=AXIS2_PLACEMENT_3D('',#552,#449,#450);
#380=AXIS2_PLACEMENT_3D('',#554,#452,#453);
#381=AXIS2_PLACEMENT_3D('',#555,#454,#455);
#382=AXIS2_PLACEMENT_3D('',#558,#457,#458);
#383=AXIS2_PLACEMENT_3D('',#559,#459,#460);
#384=AXIS2_PLACEMENT_3D('',#561,#462,#463);
#385=AXIS2_PLACEMENT_3D('',#562,#464,#465);
#386=AXIS2_PLACEMENT_3D('',#566,#468,#469);
#387=AXIS2_PLACEMENT_3D('',#568,#471,#472);
#388=AXIS2_PLACEMENT_3D('',#569,#473,#474);
#389=AXIS2_PLACEMENT_3D('',#570,#475,#476);
#390=DIRECTION('',(0.,0.,1.));
#391=DIRECTION('',(1.,0.,0.));
#392=DIRECTION('',(0.996194698091746,0.0871557427476584,0.));
#393=DIRECTION('',(-0.087155742747658,-0.996194698091746,0.));
#394=DIRECTION('',(0.996194698091746,0.0871557427476581,0.));
#395=DIRECTION('',(-0.173648177666934,-0.984807753012208,0.));
#396=DIRECTION('',(0.819152044288992,0.573576436351046,0.));
#397=DIRECTION('',(-1.,-9.34081871679819E-17,0.));
#398=DIRECTION('',(3.85494105772624E-16,-1.,0.));
#399=DIRECTION('',(1.,0.,0.));
#400=DIRECTION('',(-0.707106781186548,-0.707106781186548,0.));
#401=DIRECTION('',(0.,0.,1.));
#402=DIRECTION('',(1.,0.,0.));
#403=DIRECTION('',(-0.0871557427476579,-0.996194698091746,0.));
#404=DIRECTION('',(0.,0.,1.));
#405=DIRECTION('',(1.,0.,0.));
#406=DIRECTION('',(0.12325001738945,0.0107829793009498,0.992317066552267));
#407=DIRECTION('',(0.996194698091746,0.0871557427476581,0.));
#408=DIRECTION('',(0.,0.,-1.));
#409=DIRECTION('',(-0.996194698091746,-0.0871557427476581,0.));
#410=DIRECTION('',(0.,0.,-1.));
#411=DIRECTION('',(-0.0871557427476581,0.996194698091746,0.));
#412=DIRECTION('',(-0.996194698091746,-0.0871557427476581,0.));
#413=DIRECTION('',(0.,0.,1.));
#414=DIRECTION('',(1.,0.,0.));
#415=DIRECTION('',(0.,0.,-1.));
#416=DIRECTION('',(0.,0.,-1.));
#417=DIRECTION('',(-1.,0.,0.));
#418=DIRECTION('',(0.,0.,1.));
#419=DIRECTION('',(1.,0.,0.));
#420=DIRECTION('',(-0.0107829793009498,-0.12325001738945,-0.992317066552267));
#421=DIRECTION('',(0.,0.,-1.));
#422=DIRECTION('',(0.0871557427476579,0.996194698091746,0.));
#423=DIRECTION('',(-0.0871557427476579,-0.996194698091746,0.));
#424=DIRECTION('',(0.996194698091746,-0.0871557427476579,0.));
#425=DIRECTION('',(0.0871557427476579,0.996194698091746,0.));
#426=DIRECTION('',(0.173648177666934,0.984807753012207,0.));
#427=DIRECTION('',(0.,0.,1.));
#428=DIRECTION('',(0.984807753012207,-0.173648177666934,0.));
#429=DIRECTION('',(0.173648177666934,0.984807753012208,0.));
#430=DIRECTION('',(-1.,0.,0.));
#431=DIRECTION('',(0.,0.,1.));
#432=DIRECTION('',(0.707106781186547,0.,0.707106781186548));
#433=DIRECTION('',(-1.,0.,0.));
#434=DIRECTION('',(0.,0.,1.));
#435=DIRECTION('',(0.,1.,0.));
#436=DIRECTION('',(0.,0.,1.));
#437=DIRECTION('',(1.,9.34081871679819E-17,0.));
#438=DIRECTION('',(-0.707106781186547,-6.60495625648222E-17,-0.707106781186548));
#439=DIRECTION('',(0.,0.,-1.));
#440=DIRECTION('',(1.,9.34081871679819E-17,0.));
#441=DIRECTION('',(0.,0.,1.));
#442=DIRECTION('',(9.34081871679819E-17,-1.,0.));
#443=DIRECTION('',(1.,9.36750677027476E-17,0.));
#444=DIRECTION('',(-3.85494105772624E-16,1.,0.));
#445=DIRECTION('',(0.,1.,0.));
#446=DIRECTION('',(0.,0.,-1.));
#447=DIRECTION('',(-1.,0.,0.));
#448=DIRECTION('',(-0.819152044288992,-0.573576436351046,0.));
#449=DIRECTION('',(0.573576436351046,-0.819152044288992,0.));
#450=DIRECTION('',(0.,0.,-1.));
#451=DIRECTION('',(0.,1.,0.));
#452=DIRECTION('',(1.,0.,0.));
#453=DIRECTION('',(0.,0.,-1.));
#454=DIRECTION('',(0.,0.,-1.));
#455=DIRECTION('',(-1.,0.,0.));
#456=DIRECTION('',(0.707106781186548,0.707106781186548,0.));
#457=DIRECTION('',(0.,0.,-1.));
#458=DIRECTION('',(-1.,0.,0.));
#459=DIRECTION('',(-0.707106781186548,-2.72585496299267E-16,0.707106781186547));
#460=DIRECTION('',(0.707106781186547,0.,0.707106781186548));
#461=DIRECTION('',(0.,0.,1.));
#462=DIRECTION('',(0.,0.,1.));
#463=DIRECTION('',(1.,0.,0.));
#464=DIRECTION('',(0.707106781186547,-0.707106781186547,0.));
#465=DIRECTION('',(0.707106781186548,0.707106781186548,0.));
#466=DIRECTION('',(-0.087155742747658,-0.996194698091746,0.));
#467=DIRECTION('',(0.996194698091746,0.0871557427476584,0.));
#468=DIRECTION('',(0.,0.,1.));
#469=DIRECTION('',(1.,0.,0.));
#470=DIRECTION('',(-0.132671941384344,-0.132671941384344,-0.982240455254526));
#471=DIRECTION('',(-0.988769213876451,0.086506097057629,0.121869343405147));
#472=DIRECTION('',(0.122327911442424,0.,0.992489739031157));
#473=DIRECTION('',(0.0865060970576294,-0.988769213876451,0.121869343405147));
#474=DIRECTION('',(0.,-0.122327911442424,-0.992489739031157));
#475=DIRECTION('',(0.,0.,1.));
#476=DIRECTION('',(0.996194698091746,0.0871557427476579,0.));
#477=CARTESIAN_POINT('',(0.,0.,0.));
#478=CARTESIAN_POINT('',(-0.820609798563249,9.37961291773636,-0.3));
#479=CARTESIAN_POINT('',(1.35395225691394,9.56986244572425,-0.299999999999998));
#480=CARTESIAN_POINT('',(10.3575775932921,10.3575775932921,-0.3));
#481=CARTESIAN_POINT('',(9.37961291773637,-0.820609798563246,-0.3));
#482=CARTESIAN_POINT('',(9.56986244572425,1.35395225691394,-0.299999999999998));
#483=CARTESIAN_POINT('',(8.83520849796402,1.28967836487035,-0.300000000000002));
#484=CARTESIAN_POINT('',(14.6112011664809,1.79501224397443,-0.3));
#485=CARTESIAN_POINT('',(14.2946920771661,-8.88178419700125E-16,-0.3));
#486=CARTESIAN_POINT('',(14.7182872358884,2.40232752253977,-0.3));
#487=CARTESIAN_POINT('',(14.7182872358884,2.40232752253976,-0.3));
#488=CARTESIAN_POINT('',(17.,4.00000000000001,-0.3));
#489=CARTESIAN_POINT('',(15.,4.00000000000001,-0.3));
#490=CARTESIAN_POINT('',(18.,4.00000000000001,-0.3));
#491=CARTESIAN_POINT('',(18.,-1.,-0.3));
#492=CARTESIAN_POINT('',(18.,16.,-0.3));
#493=CARTESIAN_POINT('',(80.,16.,-0.3));
#494=CARTESIAN_POINT('',(5.56656174372168,16.,-0.3));
#495=CARTESIAN_POINT('',(2.33865920612074,12.7720974623991,-0.300000000000002));
#496=CARTESIAN_POINT('',(2.33865920612074,12.7720974623991,-0.300000000000002));
#497=CARTESIAN_POINT('',(4.45997954968039,10.6507771188394,-0.300000000000002));
#498=CARTESIAN_POINT('',(1.47139545540515,10.9122443470824,-0.300000000000002));
#499=CARTESIAN_POINT('',(0.628558011066909,1.27856827557055,-0.300000000000002));
#500=CARTESIAN_POINT('',(0.,0.,-0.3));
#501=CARTESIAN_POINT('',(5.92621527317002,1.03517443542716,-29.6359250603236));
#502=CARTESIAN_POINT('',(9.11403277286489,1.31407232804002,-3.97));
#503=CARTESIAN_POINT('',(8.83520849796402,1.28967836487035,-3.97));
#504=CARTESIAN_POINT('',(1.27856827557055,0.628558011066908,-3.97));
#505=CARTESIAN_POINT('',(1.27856827557055,0.628558011066908,-30.));
#506=CARTESIAN_POINT('',(1.27856827557055,0.628558011066908,-12.));
#507=CARTESIAN_POINT('',(8.83520849796402,1.28967836487035,-12.));
#508=CARTESIAN_POINT('',(14.6112011664809,1.79501224397443,-12.));
#509=CARTESIAN_POINT('',(14.6112011664809,1.79501224397443,-30.));
#510=CARTESIAN_POINT('',(8.83520849796402,1.28967836487035,-30.));
#511=CARTESIAN_POINT('',(1.22627482992196,1.22627482992196,-3.97));
#512=CARTESIAN_POINT('',(0.628558011066909,1.27856827557055,-3.97));
#513=CARTESIAN_POINT('',(0.628558011066909,1.27856827557055,-30.));
#514=CARTESIAN_POINT('',(0.628558011066909,1.27856827557055,-12.));
#515=CARTESIAN_POINT('',(1.22627482992196,1.22627482992196,-12.));
#516=CARTESIAN_POINT('',(1.22627482992196,1.22627482992196,-30.));
#517=CARTESIAN_POINT('',(1.02505477232818,5.81054699466233,-30.5671996293098));
#518=CARTESIAN_POINT('',(1.31407232804002,9.11403277286489,-3.97));
#519=CARTESIAN_POINT('',(1.47139545540515,10.9122443470824,-30.));
#520=CARTESIAN_POINT('',(1.47139545540515,10.9122443470824,-12.));
#521=CARTESIAN_POINT('',(0.628558011066909,1.27856827557055,-12.));
#522=CARTESIAN_POINT('',(0.628558011066909,1.27856827557055,-3.97));
#523=CARTESIAN_POINT('',(0.628558011066909,1.27856827557055,-30.));
#524=CARTESIAN_POINT('',(14.2946920771661,-8.88178419700125E-16,-12.));
#525=CARTESIAN_POINT('',(14.7182872358884,2.40232752253977,-12.));
#526=CARTESIAN_POINT('',(14.7182872358884,2.40232752253977,0.));
#527=CARTESIAN_POINT('',(14.2946920771661,-8.88178419700125E-16,-12.));
#528=CARTESIAN_POINT('',(80.,16.,-12.));
#529=CARTESIAN_POINT('',(80.,16.,-12.));
#530=CARTESIAN_POINT('',(5.56656174372168,16.,-12.));
#531=CARTESIAN_POINT('',(5.56656174372168,16.,-30.));
#532=CARTESIAN_POINT('',(43.15,16.,24.85));
#533=CARTESIAN_POINT('',(18.3,16.,0.));
#534=CARTESIAN_POINT('',(80.,16.,0.));
#535=CARTESIAN_POINT('',(80.,16.,0.));
#536=CARTESIAN_POINT('',(80.,16.,-12.));
#537=CARTESIAN_POINT('',(80.,16.,-12.));
#538=CARTESIAN_POINT('',(15.,4.00000000000001,0.));
#539=CARTESIAN_POINT('',(18.3,4.00000000000001,0.));
#540=CARTESIAN_POINT('',(80.,4.00000000000002,0.));
#541=CARTESIAN_POINT('',(10.65,4.00000000000001,-7.65000000000001));
#542=CARTESIAN_POINT('',(17.,4.00000000000001,-12.));
#543=CARTESIAN_POINT('',(17.,4.00000000000001,-12.));
#544=CARTESIAN_POINT('',(15.,4.00000000000001,-12.));
#545=CARTESIAN_POINT('',(80.,4.00000000000002,-12.));
#546=CARTESIAN_POINT('',(80.,4.00000000000002,-12.));
#547=CARTESIAN_POINT('',(15.,4.00000000000001,-12.));
#548=CARTESIAN_POINT('',(18.3,7.05454213563902E-15,0.));
#549=CARTESIAN_POINT('',(80.,4.00000000000001,0.));
#550=CARTESIAN_POINT('',(0.,0.,0.));
#551=CARTESIAN_POINT('',(14.7182872358884,2.40232752253976,-12.));
#552=CARTESIAN_POINT('',(14.7182872358884,2.40232752253976,-12.));
#553=CARTESIAN_POINT('',(80.,4.00000000000001,-12.));
#554=CARTESIAN_POINT('',(80.,4.00000000000001,-12.));
#555=CARTESIAN_POINT('',(4.45997954968039,10.6507771188394,-12.));
#556=CARTESIAN_POINT('',(2.33865920612074,12.7720974623991,-12.));
#557=CARTESIAN_POINT('',(2.33865920612074,12.7720974623991,-12.));
#558=CARTESIAN_POINT('',(0.,0.,-12.));
#559=CARTESIAN_POINT('',(18.,-1.,-0.3));
#560=CARTESIAN_POINT('',(2.33865920612074,12.7720974623991,-30.));
#561=CARTESIAN_POINT('',(4.45997954968039,10.6507771188394,-30.));
#562=CARTESIAN_POINT('',(2.33865920612074,12.7720974623991,-30.));
#563=CARTESIAN_POINT('',(9.01668248624379,0.201353460271987,-3.97));
#564=CARTESIAN_POINT('',(9.86186799155884,9.86186799155884,-3.97));
#565=CARTESIAN_POINT('',(9.49080840286859,9.82940448405586,-3.97));
#566=CARTESIAN_POINT('',(0.800050294101187,0.800050294101187,-3.97));
#567=CARTESIAN_POINT('',(9.85476524095687,9.85476524095687,-4.02258541415801));
#568=CARTESIAN_POINT('',(9.01668248624379,0.201353460271987,-3.97));
#569=CARTESIAN_POINT('',(9.49080840286859,9.82940448405586,-3.97));
#570=CARTESIAN_POINT('',(5.15904940707113,5.15904940707113,6.66133814775094E-16));
#571=(
GEOMETRIC_REPRESENTATION_CONTEXT(3)
GLOBAL_UNCERTAINTY_ASSIGNED_CONTEXT((#573))
GLOBAL_UNIT_ASSIGNED_CONTEXT((#580,#576,#575))
REPRESENTATION_CONTEXT('SCLCR-1212-F09','TOP_LEVEL_ASSEMBLY_PART')
);
#572=(
GEOMETRIC_REPRESENTATION_CONTEXT(3)
GLOBAL_UNCERTAINTY_ASSIGNED_CONTEXT((#574))
GLOBAL_UNIT_ASSIGNED_CONTEXT((#580,#576,#575))
REPRESENTATION_CONTEXT('CCMT 09T308','COMPONENT_PART')
);
#573=UNCERTAINTY_MEASURE_WITH_UNIT(LENGTH_MEASURE(2.E-5),#580,
'DISTANCE_ACCURACY_VALUE','Maximum Tolerance applied to model');
#574=UNCERTAINTY_MEASURE_WITH_UNIT(LENGTH_MEASURE(2.E-8),#580,
'DISTANCE_ACCURACY_VALUE','Maximum Tolerance applied to model');
#575=(
NAMED_UNIT(*)
SI_UNIT($,.STERADIAN.)
SOLID_ANGLE_UNIT()
);
#576=(
CONVERSION_BASED_UNIT('DEGREE',#578)
NAMED_UNIT(#577)
PLANE_ANGLE_UNIT()
);
#577=DIMENSIONAL_EXPONENTS(0.,0.,0.,0.,0.,0.,0.);
#578=PLANE_ANGLE_MEASURE_WITH_UNIT(PLANE_ANGLE_MEASURE(0.0174532925),#579);
#579=(
NAMED_UNIT(*)
PLANE_ANGLE_UNIT()
SI_UNIT($,.RADIAN.)
);
#580=(
LENGTH_UNIT()
NAMED_UNIT(*)
SI_UNIT(.MILLI.,.METRE.)
);
ENDSEC;
END-ISO-10303-21;
