ISO-10303-21;
HEADER;
/* Generated by software containing ST-Developer
 * from STEP Tools, Inc. (www.steptools.com) 
 */
/* OPTION: using custom schema-name function */

FILE_DESCRIPTION(
/* description */ (''),
/* implementation_level */ '2;1');

FILE_NAME(
/* name */ 'SRDCN-1616-H06.stp',
/* time_stamp */ '2023-10-02T22:37:24+03:00',
/* author */ (''),
/* organization */ (''),
/* preprocessor_version */ 'ST-DEVELOPER v19.4',
/* originating_system */ 'SIEMENS PLM Software NX2306.3001',
/* authorisation */ '');

FILE_SCHEMA (('AUTOMOTIVE_DESIGN { 1 0 10303 214 3 1 1 1 }'));
ENDSEC;

DATA;
#10=SHAPE_REPRESENTATION_RELATIONSHIP('None',
'relationship between model1-None and model1-None',#22,#11);
#11=ADVANCED_BREP_SHAPE_REPRESENTATION('model1-None',(#133,#134),#626);
#12=SHAPE_DEFINITION_REPRESENTATION(#13,#22);
#13=PRODUCT_DEFINITION_SHAPE('','',#14);
#14=PRODUCT_DEFINITION(' ','',#16,#15);
#15=PRODUCT_DEFINITION_CONTEXT('part definition',#21,'design');
#16=PRODUCT_DEFINITION_FORMATION_WITH_SPECIFIED_SOURCE(' ',' ',#18,
 .NOT_KNOWN.);
#17=PRODUCT_RELATED_PRODUCT_CATEGORY('part','',(#18));
#18=PRODUCT('model1','model1',' ',(#19));
#19=PRODUCT_CONTEXT(' ',#21,'mechanical');
#20=APPLICATION_PROTOCOL_DEFINITION('international standard',
'automotive_design',2010,#21);
#21=APPLICATION_CONTEXT(
'core data for automotive mechanical design processes');
#22=SHAPE_REPRESENTATION('model1-None',(#380),#626);
#23=(
BOUNDED_CURVE()
B_SPLINE_CURVE(3,(#577,#578,#579,#580),.UNSPECIFIED.,.F.,.F.)
B_SPLINE_CURVE_WITH_KNOTS((4,4),(0.,1.),.UNSPECIFIED.)
CURVE()
GEOMETRIC_REPRESENTATION_ITEM()
RATIONAL_B_SPLINE_CURVE((0.517790579239524,0.494069806920159,0.494069806920159,
0.517790579239524))
REPRESENTATION_ITEM('')
);
#24=(
BOUNDED_CURVE()
B_SPLINE_CURVE(3,(#586,#587,#588,#589),.UNSPECIFIED.,.F.,.F.)
B_SPLINE_CURVE_WITH_KNOTS((4,4),(0.,1.),.UNSPECIFIED.)
CURVE()
GEOMETRIC_REPRESENTATION_ITEM()
RATIONAL_B_SPLINE_CURVE((0.517790579239521,0.49406980692016,0.49406980692016,
0.517790579239521))
REPRESENTATION_ITEM('')
);
#25=(
BOUNDED_CURVE()
B_SPLINE_CURVE(3,(#598,#599,#600,#601),.UNSPECIFIED.,.F.,.F.)
B_SPLINE_CURVE_WITH_KNOTS((4,4),(0.,1.),.UNSPECIFIED.)
CURVE()
GEOMETRIC_REPRESENTATION_ITEM()
RATIONAL_B_SPLINE_CURVE((0.517790579239521,0.49406980692016,0.49406980692016,
0.517790579239521))
REPRESENTATION_ITEM('')
);
#26=(
BOUNDED_CURVE()
B_SPLINE_CURVE(3,(#606,#607,#608,#609),.UNSPECIFIED.,.F.,.F.)
B_SPLINE_CURVE_WITH_KNOTS((4,4),(0.,1.),.UNSPECIFIED.)
CURVE()
GEOMETRIC_REPRESENTATION_ITEM()
RATIONAL_B_SPLINE_CURVE((0.517790579239524,0.494069806920159,0.494069806920159,
0.517790579239524))
REPRESENTATION_ITEM('')
);
#27=(
BOUNDED_CURVE()
B_SPLINE_CURVE(3,(#613,#614,#615,#616),.UNSPECIFIED.,.F.,.F.)
B_SPLINE_CURVE_WITH_KNOTS((4,4),(0.,1.),.UNSPECIFIED.)
CURVE()
GEOMETRIC_REPRESENTATION_ITEM()
RATIONAL_B_SPLINE_CURVE((0.517790579239521,0.49406980692016,0.49406980692016,
0.517790579239521))
REPRESENTATION_ITEM('')
);
#28=(
BOUNDED_CURVE()
B_SPLINE_CURVE(3,(#618,#619,#620,#621),.UNSPECIFIED.,.F.,.F.)
B_SPLINE_CURVE_WITH_KNOTS((4,4),(0.,1.),.UNSPECIFIED.)
CURVE()
GEOMETRIC_REPRESENTATION_ITEM()
RATIONAL_B_SPLINE_CURVE((0.517790579239524,0.494069806920159,0.494069806920159,
0.517790579239524))
REPRESENTATION_ITEM('')
);
#29=CYLINDRICAL_SURFACE('',#388,2.65777274505109);
#30=CYLINDRICAL_SURFACE('',#401,8.);
#31=CYLINDRICAL_SURFACE('',#402,8.);
#32=SURFACE_OF_LINEAR_EXTRUSION('',#88,#60);
#33=SURFACE_OF_LINEAR_EXTRUSION('',#93,#63);
#34=SURFACE_OF_LINEAR_EXTRUSION('',#27,#81);
#35=SURFACE_OF_LINEAR_EXTRUSION('',#28,#83);
#36=LINE('',#503,#58);
#37=LINE('',#510,#59);
#38=LINE('',#522,#61);
#39=LINE('',#537,#62);
#40=LINE('',#551,#64);
#41=LINE('',#554,#65);
#42=LINE('',#556,#66);
#43=LINE('',#558,#67);
#44=LINE('',#560,#68);
#45=LINE('',#562,#69);
#46=LINE('',#564,#70);
#47=LINE('',#567,#71);
#48=LINE('',#569,#72);
#49=LINE('',#571,#73);
#50=LINE('',#573,#74);
#51=LINE('',#575,#75);
#52=LINE('',#583,#76);
#53=LINE('',#591,#77);
#54=LINE('',#593,#78);
#55=LINE('',#595,#79);
#56=LINE('',#611,#80);
#57=LINE('',#617,#82);
#58=VECTOR('',#418,1.);
#59=VECTOR('',#419,1.);
#60=VECTOR('',#420,1.);
#61=VECTOR('',#423,1.);
#62=VECTOR('',#428,1.);
#63=VECTOR('',#429,1.);
#64=VECTOR('',#430,1.);
#65=VECTOR('',#431,1.);
#66=VECTOR('',#432,1.);
#67=VECTOR('',#433,1.);
#68=VECTOR('',#434,1.);
#69=VECTOR('',#435,1.);
#70=VECTOR('',#438,1.);
#71=VECTOR('',#439,1.);
#72=VECTOR('',#440,1.);
#73=VECTOR('',#441,1.);
#74=VECTOR('',#442,1.);
#75=VECTOR('',#443,1.);
#76=VECTOR('',#448,1.);
#77=VECTOR('',#453,1.);
#78=VECTOR('',#456,1.);
#79=VECTOR('',#459,1.);
#80=VECTOR('',#470,1.);
#81=VECTOR('',#473,1.);
#82=VECTOR('',#474,1.);
#83=VECTOR('',#475,1.);
#84=B_SPLINE_CURVE_WITH_KNOTS('',3,(#492,#493,#494,#495),.UNSPECIFIED.,
 .F.,.F.,(4,4),(0.,1.),.UNSPECIFIED.);
#85=B_SPLINE_CURVE_WITH_KNOTS('',3,(#498,#499,#500,#501),.UNSPECIFIED.,
 .F.,.F.,(4,4),(0.,1.),.UNSPECIFIED.);
#86=B_SPLINE_CURVE_WITH_KNOTS('',3,(#505,#506,#507,#508),.UNSPECIFIED.,
 .F.,.F.,(4,4),(0.,1.),.UNSPECIFIED.);
#87=B_SPLINE_CURVE_WITH_KNOTS('',3,(#512,#513,#514,#515),.UNSPECIFIED.,
 .F.,.F.,(4,4),(0.,1.),.UNSPECIFIED.);
#88=B_SPLINE_CURVE_WITH_KNOTS('',3,(#516,#517,#518,#519),.UNSPECIFIED.,
 .F.,.F.,(4,4),(0.,1.),.UNSPECIFIED.);
#89=B_SPLINE_CURVE_WITH_KNOTS('',3,(#526,#527,#528,#529),.UNSPECIFIED.,
 .F.,.F.,(4,4),(0.,1.),.UNSPECIFIED.);
#90=B_SPLINE_CURVE_WITH_KNOTS('',3,(#532,#533,#534,#535),.UNSPECIFIED.,
 .F.,.F.,(4,4),(0.,1.),.UNSPECIFIED.);
#91=B_SPLINE_CURVE_WITH_KNOTS('',3,(#539,#540,#541,#542),.UNSPECIFIED.,
 .F.,.F.,(4,4),(0.,1.),.UNSPECIFIED.);
#92=B_SPLINE_CURVE_WITH_KNOTS('',3,(#543,#544,#545,#546),.UNSPECIFIED.,
 .F.,.F.,(4,4),(0.,1.),.UNSPECIFIED.);
#93=B_SPLINE_CURVE_WITH_KNOTS('',3,(#547,#548,#549,#550),.UNSPECIFIED.,
 .F.,.F.,(4,4),(0.,1.),.UNSPECIFIED.);
#94=OVER_RIDING_STYLED_ITEM('',(#102),#165,#99);
#95=OVER_RIDING_STYLED_ITEM('',(#103),#166,#99);
#96=OVER_RIDING_STYLED_ITEM('',(#104),#167,#99);
#97=DRAUGHTING_PRE_DEFINED_COLOUR('yellow');
#98=PRESENTATION_LAYER_ASSIGNMENT('1','Layer 1',(#133,#134));
#99=STYLED_ITEM('',(#101),#133);
#100=STYLED_ITEM('',(#105),#134);
#101=PRESENTATION_STYLE_ASSIGNMENT((#106));
#102=PRESENTATION_STYLE_ASSIGNMENT((#107));
#103=PRESENTATION_STYLE_ASSIGNMENT((#108));
#104=PRESENTATION_STYLE_ASSIGNMENT((#109));
#105=PRESENTATION_STYLE_ASSIGNMENT((#110));
#106=SURFACE_STYLE_USAGE(.BOTH.,#111);
#107=SURFACE_STYLE_USAGE(.BOTH.,#112);
#108=SURFACE_STYLE_USAGE(.BOTH.,#113);
#109=SURFACE_STYLE_USAGE(.BOTH.,#114);
#110=SURFACE_STYLE_USAGE(.BOTH.,#115);
#111=SURFACE_SIDE_STYLE('',(#116));
#112=SURFACE_SIDE_STYLE('',(#117));
#113=SURFACE_SIDE_STYLE('',(#118));
#114=SURFACE_SIDE_STYLE('',(#119));
#115=SURFACE_SIDE_STYLE('',(#120));
#116=SURFACE_STYLE_FILL_AREA(#121);
#117=SURFACE_STYLE_FILL_AREA(#122);
#118=SURFACE_STYLE_FILL_AREA(#123);
#119=SURFACE_STYLE_FILL_AREA(#124);
#120=SURFACE_STYLE_FILL_AREA(#125);
#121=FILL_AREA_STYLE('',(#126));
#122=FILL_AREA_STYLE('',(#127));
#123=FILL_AREA_STYLE('',(#128));
#124=FILL_AREA_STYLE('',(#129));
#125=FILL_AREA_STYLE('',(#130));
#126=FILL_AREA_STYLE_COLOUR('',#131);
#127=FILL_AREA_STYLE_COLOUR('',#97);
#128=FILL_AREA_STYLE_COLOUR('',#97);
#129=FILL_AREA_STYLE_COLOUR('',#97);
#130=FILL_AREA_STYLE_COLOUR('',#132);
#131=COLOUR_RGB('Medium Steel',0.611764705882353,0.658823529411765,0.670588235294118);
#132=COLOUR_RGB('light gray',0.8,0.8,0.8);
#133=MANIFOLD_SOLID_BREP('',#135);
#134=MANIFOLD_SOLID_BREP('',#136);
#135=CLOSED_SHELL('',(#165,#166,#167));
#136=CLOSED_SHELL('',(#168,#169,#170,#171,#172,#173,#174,#175,#176,#177,
#178,#179,#180,#181,#182,#183));
#137=PLANE('',#384);
#138=PLANE('',#385);
#139=PLANE('',#389);
#140=PLANE('',#390);
#141=PLANE('',#393);
#142=PLANE('',#394);
#143=PLANE('',#395);
#144=PLANE('',#396);
#145=PLANE('',#400);
#146=PLANE('',#405);
#147=FACE_OUTER_BOUND('',#190,.T.);
#148=FACE_OUTER_BOUND('',#191,.T.);
#149=FACE_OUTER_BOUND('',#192,.T.);
#150=FACE_OUTER_BOUND('',#193,.T.);
#151=FACE_OUTER_BOUND('',#194,.T.);
#152=FACE_OUTER_BOUND('',#195,.T.);
#153=FACE_OUTER_BOUND('',#196,.T.);
#154=FACE_OUTER_BOUND('',#197,.T.);
#155=FACE_OUTER_BOUND('',#198,.T.);
#156=FACE_OUTER_BOUND('',#199,.T.);
#157=FACE_OUTER_BOUND('',#200,.T.);
#158=FACE_OUTER_BOUND('',#201,.T.);
#159=FACE_OUTER_BOUND('',#202,.T.);
#160=FACE_OUTER_BOUND('',#203,.T.);
#161=FACE_OUTER_BOUND('',#204,.T.);
#162=FACE_OUTER_BOUND('',#205,.T.);
#163=FACE_OUTER_BOUND('',#206,.T.);
#164=FACE_OUTER_BOUND('',#207,.T.);
#165=ADVANCED_FACE('',(#186,#187),#184,.T.);
#166=ADVANCED_FACE('',(#147),#137,.F.);
#167=ADVANCED_FACE('',(#148),#138,.T.);
#168=ADVANCED_FACE('',(#149),#32,.F.);
#169=ADVANCED_FACE('',(#150),#29,.T.);
#170=ADVANCED_FACE('',(#151),#33,.F.);
#171=ADVANCED_FACE('',(#152),#139,.T.);
#172=ADVANCED_FACE('',(#153),#140,.T.);
#173=ADVANCED_FACE('',(#154),#141,.F.);
#174=ADVANCED_FACE('',(#155),#142,.T.);
#175=ADVANCED_FACE('',(#156),#143,.T.);
#176=ADVANCED_FACE('',(#157),#144,.F.);
#177=ADVANCED_FACE('',(#158),#145,.T.);
#178=ADVANCED_FACE('',(#159),#30,.T.);
#179=ADVANCED_FACE('',(#160),#34,.F.);
#180=ADVANCED_FACE('',(#161),#35,.F.);
#181=ADVANCED_FACE('',(#162),#31,.T.);
#182=ADVANCED_FACE('',(#163),#185,.F.);
#183=ADVANCED_FACE('',(#164),#146,.T.);
#184=CONICAL_SURFACE('',#383,3.,7.00000000000002);
#185=CONICAL_SURFACE('',#404,2.70777274505108,7.);
#186=FACE_BOUND('',#188,.T.);
#187=FACE_BOUND('',#189,.T.);
#188=EDGE_LOOP('',(#208));
#189=EDGE_LOOP('',(#209));
#190=EDGE_LOOP('',(#210));
#191=EDGE_LOOP('',(#211));
#192=EDGE_LOOP('',(#212,#213,#214,#215,#216,#217));
#193=EDGE_LOOP('',(#218,#219,#220,#221));
#194=EDGE_LOOP('',(#222,#223,#224,#225,#226,#227));
#195=EDGE_LOOP('',(#228,#229,#230,#231,#232,#233));
#196=EDGE_LOOP('',(#234,#235,#236,#237,#238,#239));
#197=EDGE_LOOP('',(#240,#241,#242,#243,#244,#245,#246,#247,#248,#249));
#198=EDGE_LOOP('',(#250,#251,#252,#253));
#199=EDGE_LOOP('',(#254,#255,#256,#257));
#200=EDGE_LOOP('',(#258,#259,#260,#261));
#201=EDGE_LOOP('',(#262,#263,#264,#265,#266,#267,#268,#269,#270,#271));
#202=EDGE_LOOP('',(#272,#273,#274,#275));
#203=EDGE_LOOP('',(#276,#277,#278,#279));
#204=EDGE_LOOP('',(#280,#281,#282,#283));
#205=EDGE_LOOP('',(#284,#285,#286,#287));
#206=EDGE_LOOP('',(#288,#289,#290,#291));
#207=EDGE_LOOP('',(#292,#293,#294,#295));
#208=ORIENTED_EDGE('',*,*,#326,.T.);
#209=ORIENTED_EDGE('',*,*,#327,.F.);
#210=ORIENTED_EDGE('',*,*,#326,.F.);
#211=ORIENTED_EDGE('',*,*,#327,.T.);
#212=ORIENTED_EDGE('',*,*,#328,.F.);
#213=ORIENTED_EDGE('',*,*,#329,.F.);
#214=ORIENTED_EDGE('',*,*,#330,.T.);
#215=ORIENTED_EDGE('',*,*,#331,.F.);
#216=ORIENTED_EDGE('',*,*,#332,.F.);
#217=ORIENTED_EDGE('',*,*,#333,.F.);
#218=ORIENTED_EDGE('',*,*,#334,.F.);
#219=ORIENTED_EDGE('',*,*,#335,.T.);
#220=ORIENTED_EDGE('',*,*,#336,.F.);
#221=ORIENTED_EDGE('',*,*,#330,.F.);
#222=ORIENTED_EDGE('',*,*,#337,.F.);
#223=ORIENTED_EDGE('',*,*,#338,.F.);
#224=ORIENTED_EDGE('',*,*,#339,.T.);
#225=ORIENTED_EDGE('',*,*,#340,.F.);
#226=ORIENTED_EDGE('',*,*,#335,.F.);
#227=ORIENTED_EDGE('',*,*,#341,.F.);
#228=ORIENTED_EDGE('',*,*,#342,.T.);
#229=ORIENTED_EDGE('',*,*,#343,.T.);
#230=ORIENTED_EDGE('',*,*,#344,.T.);
#231=ORIENTED_EDGE('',*,*,#345,.T.);
#232=ORIENTED_EDGE('',*,*,#346,.F.);
#233=ORIENTED_EDGE('',*,*,#347,.F.);
#234=ORIENTED_EDGE('',*,*,#348,.T.);
#235=ORIENTED_EDGE('',*,*,#349,.T.);
#236=ORIENTED_EDGE('',*,*,#350,.T.);
#237=ORIENTED_EDGE('',*,*,#351,.F.);
#238=ORIENTED_EDGE('',*,*,#352,.F.);
#239=ORIENTED_EDGE('',*,*,#353,.F.);
#240=ORIENTED_EDGE('',*,*,#354,.T.);
#241=ORIENTED_EDGE('',*,*,#355,.T.);
#242=ORIENTED_EDGE('',*,*,#348,.F.);
#243=ORIENTED_EDGE('',*,*,#356,.F.);
#244=ORIENTED_EDGE('',*,*,#344,.F.);
#245=ORIENTED_EDGE('',*,*,#357,.T.);
#246=ORIENTED_EDGE('',*,*,#358,.T.);
#247=ORIENTED_EDGE('',*,*,#331,.T.);
#248=ORIENTED_EDGE('',*,*,#336,.T.);
#249=ORIENTED_EDGE('',*,*,#340,.T.);
#250=ORIENTED_EDGE('',*,*,#359,.F.);
#251=ORIENTED_EDGE('',*,*,#345,.F.);
#252=ORIENTED_EDGE('',*,*,#356,.T.);
#253=ORIENTED_EDGE('',*,*,#353,.T.);
#254=ORIENTED_EDGE('',*,*,#360,.F.);
#255=ORIENTED_EDGE('',*,*,#346,.T.);
#256=ORIENTED_EDGE('',*,*,#359,.T.);
#257=ORIENTED_EDGE('',*,*,#352,.T.);
#258=ORIENTED_EDGE('',*,*,#347,.T.);
#259=ORIENTED_EDGE('',*,*,#360,.T.);
#260=ORIENTED_EDGE('',*,*,#351,.T.);
#261=ORIENTED_EDGE('',*,*,#361,.T.);
#262=ORIENTED_EDGE('',*,*,#338,.T.);
#263=ORIENTED_EDGE('',*,*,#362,.T.);
#264=ORIENTED_EDGE('',*,*,#333,.T.);
#265=ORIENTED_EDGE('',*,*,#363,.T.);
#266=ORIENTED_EDGE('',*,*,#364,.T.);
#267=ORIENTED_EDGE('',*,*,#342,.F.);
#268=ORIENTED_EDGE('',*,*,#361,.F.);
#269=ORIENTED_EDGE('',*,*,#350,.F.);
#270=ORIENTED_EDGE('',*,*,#365,.T.);
#271=ORIENTED_EDGE('',*,*,#366,.T.);
#272=ORIENTED_EDGE('',*,*,#367,.T.);
#273=ORIENTED_EDGE('',*,*,#357,.F.);
#274=ORIENTED_EDGE('',*,*,#343,.F.);
#275=ORIENTED_EDGE('',*,*,#364,.F.);
#276=ORIENTED_EDGE('',*,*,#332,.T.);
#277=ORIENTED_EDGE('',*,*,#358,.F.);
#278=ORIENTED_EDGE('',*,*,#367,.F.);
#279=ORIENTED_EDGE('',*,*,#363,.F.);
#280=ORIENTED_EDGE('',*,*,#368,.T.);
#281=ORIENTED_EDGE('',*,*,#354,.F.);
#282=ORIENTED_EDGE('',*,*,#339,.F.);
#283=ORIENTED_EDGE('',*,*,#366,.F.);
#284=ORIENTED_EDGE('',*,*,#349,.F.);
#285=ORIENTED_EDGE('',*,*,#355,.F.);
#286=ORIENTED_EDGE('',*,*,#368,.F.);
#287=ORIENTED_EDGE('',*,*,#365,.F.);
#288=ORIENTED_EDGE('',*,*,#328,.T.);
#289=ORIENTED_EDGE('',*,*,#362,.F.);
#290=ORIENTED_EDGE('',*,*,#337,.T.);
#291=ORIENTED_EDGE('',*,*,#369,.T.);
#292=ORIENTED_EDGE('',*,*,#329,.T.);
#293=ORIENTED_EDGE('',*,*,#369,.F.);
#294=ORIENTED_EDGE('',*,*,#341,.T.);
#295=ORIENTED_EDGE('',*,*,#334,.T.);
#296=VERTEX_POINT('',#486);
#297=VERTEX_POINT('',#488);
#298=VERTEX_POINT('',#496);
#299=VERTEX_POINT('',#497);
#300=VERTEX_POINT('',#502);
#301=VERTEX_POINT('',#504);
#302=VERTEX_POINT('',#509);
#303=VERTEX_POINT('',#511);
#304=VERTEX_POINT('',#521);
#305=VERTEX_POINT('',#523);
#306=VERTEX_POINT('',#530);
#307=VERTEX_POINT('',#531);
#308=VERTEX_POINT('',#536);
#309=VERTEX_POINT('',#538);
#310=VERTEX_POINT('',#552);
#311=VERTEX_POINT('',#553);
#312=VERTEX_POINT('',#555);
#313=VERTEX_POINT('',#557);
#314=VERTEX_POINT('',#559);
#315=VERTEX_POINT('',#561);
#316=VERTEX_POINT('',#565);
#317=VERTEX_POINT('',#566);
#318=VERTEX_POINT('',#568);
#319=VERTEX_POINT('',#570);
#320=VERTEX_POINT('',#572);
#321=VERTEX_POINT('',#574);
#322=VERTEX_POINT('',#581);
#323=VERTEX_POINT('',#585);
#324=VERTEX_POINT('',#602);
#325=VERTEX_POINT('',#605);
#326=EDGE_CURVE('',#296,#296,#370,.T.);
#327=EDGE_CURVE('',#297,#297,#371,.T.);
#328=EDGE_CURVE('',#298,#299,#84,.T.);
#329=EDGE_CURVE('',#300,#298,#85,.T.);
#330=EDGE_CURVE('',#300,#301,#36,.T.);
#331=EDGE_CURVE('',#302,#301,#86,.T.);
#332=EDGE_CURVE('',#303,#302,#37,.T.);
#333=EDGE_CURVE('',#299,#303,#87,.T.);
#334=EDGE_CURVE('',#304,#300,#372,.T.);
#335=EDGE_CURVE('',#304,#305,#38,.T.);
#336=EDGE_CURVE('',#301,#305,#373,.T.);
#337=EDGE_CURVE('',#306,#307,#89,.T.);
#338=EDGE_CURVE('',#308,#306,#90,.T.);
#339=EDGE_CURVE('',#308,#309,#39,.T.);
#340=EDGE_CURVE('',#305,#309,#91,.T.);
#341=EDGE_CURVE('',#307,#304,#92,.T.);
#342=EDGE_CURVE('',#310,#311,#40,.T.);
#343=EDGE_CURVE('',#311,#312,#41,.T.);
#344=EDGE_CURVE('',#312,#313,#42,.T.);
#345=EDGE_CURVE('',#313,#314,#43,.T.);
#346=EDGE_CURVE('',#315,#314,#44,.T.);
#347=EDGE_CURVE('',#310,#315,#45,.T.);
#348=EDGE_CURVE('',#316,#317,#46,.T.);
#349=EDGE_CURVE('',#317,#318,#47,.T.);
#350=EDGE_CURVE('',#318,#319,#48,.T.);
#351=EDGE_CURVE('',#320,#319,#49,.T.);
#352=EDGE_CURVE('',#321,#320,#50,.T.);
#353=EDGE_CURVE('',#316,#321,#51,.T.);
#354=EDGE_CURVE('',#309,#322,#23,.T.);
#355=EDGE_CURVE('',#322,#317,#374,.T.);
#356=EDGE_CURVE('',#313,#316,#52,.T.);
#357=EDGE_CURVE('',#312,#323,#375,.T.);
#358=EDGE_CURVE('',#323,#302,#24,.T.);
#359=EDGE_CURVE('',#314,#321,#53,.T.);
#360=EDGE_CURVE('',#315,#320,#54,.T.);
#361=EDGE_CURVE('',#319,#310,#55,.T.);
#362=EDGE_CURVE('',#306,#299,#376,.T.);
#363=EDGE_CURVE('',#303,#324,#25,.T.);
#364=EDGE_CURVE('',#324,#311,#377,.T.);
#365=EDGE_CURVE('',#318,#325,#378,.T.);
#366=EDGE_CURVE('',#325,#308,#26,.T.);
#367=EDGE_CURVE('',#324,#323,#56,.T.);
#368=EDGE_CURVE('',#325,#322,#57,.T.);
#369=EDGE_CURVE('',#307,#298,#379,.T.);
#370=CIRCLE('',#381,2.70777274505108);
#371=CIRCLE('',#382,3.);
#372=CIRCLE('',#386,2.65777274505109);
#373=CIRCLE('',#387,2.65777274505109);
#374=CIRCLE('',#391,8.);
#375=CIRCLE('',#392,8.);
#376=CIRCLE('',#397,2.96316463172913);
#377=CIRCLE('',#398,8.);
#378=CIRCLE('',#399,8.);
#379=CIRCLE('',#403,2.70777274505108);
#380=AXIS2_PLACEMENT_3D('',#484,#406,#407);
#381=AXIS2_PLACEMENT_3D('',#485,#408,#409);
#382=AXIS2_PLACEMENT_3D('',#487,#410,#411);
#383=AXIS2_PLACEMENT_3D('',#489,#412,#413);
#384=AXIS2_PLACEMENT_3D('',#490,#414,#415);
#385=AXIS2_PLACEMENT_3D('',#491,#416,#417);
#386=AXIS2_PLACEMENT_3D('',#520,#421,#422);
#387=AXIS2_PLACEMENT_3D('',#524,#424,#425);
#388=AXIS2_PLACEMENT_3D('',#525,#426,#427);
#389=AXIS2_PLACEMENT_3D('',#563,#436,#437);
#390=AXIS2_PLACEMENT_3D('',#576,#444,#445);
#391=AXIS2_PLACEMENT_3D('',#582,#446,#447);
#392=AXIS2_PLACEMENT_3D('',#584,#449,#450);
#393=AXIS2_PLACEMENT_3D('',#590,#451,#452);
#394=AXIS2_PLACEMENT_3D('',#592,#454,#455);
#395=AXIS2_PLACEMENT_3D('',#594,#457,#458);
#396=AXIS2_PLACEMENT_3D('',#596,#460,#461);
#397=AXIS2_PLACEMENT_3D('',#597,#462,#463);
#398=AXIS2_PLACEMENT_3D('',#603,#464,#465);
#399=AXIS2_PLACEMENT_3D('',#604,#466,#467);
#400=AXIS2_PLACEMENT_3D('',#610,#468,#469);
#401=AXIS2_PLACEMENT_3D('',#612,#471,#472);
#402=AXIS2_PLACEMENT_3D('',#622,#476,#477);
#403=AXIS2_PLACEMENT_3D('',#623,#478,#479);
#404=AXIS2_PLACEMENT_3D('',#624,#480,#481);
#405=AXIS2_PLACEMENT_3D('',#625,#482,#483);
#406=DIRECTION('',(0.,0.,1.));
#407=DIRECTION('',(1.,0.,0.));
#408=DIRECTION('',(8.8763443206159E-17,4.25086772284295E-16,0.999999999999998));
#409=DIRECTION('',(0.999999999979956,6.33163859237173E-6,-1.60161472112764E-16));
#410=DIRECTION('',(8.8763443206159E-17,4.25086772284295E-16,0.999999999999998));
#411=DIRECTION('',(0.999999999979956,6.33163859237173E-6,-8.87661347001921E-17));
#412=DIRECTION('',(8.8763443206159E-17,4.25086772284295E-16,0.999999999999998));
#413=DIRECTION('',(0.999999999979956,6.33163859237173E-6,7.21614732941487E-24));
#414=DIRECTION('',(8.8763443206159E-17,4.25086772284295E-16,0.999999999999998));
#415=DIRECTION('',(0.999999999979956,6.33163859237173E-6,-8.89045781438114E-17));
#416=DIRECTION('',(8.8763443206159E-17,4.25086772284295E-16,0.999999999999998));
#417=DIRECTION('',(0.999999999979956,6.33163859237173E-6,-8.87661347001921E-17));
#418=DIRECTION('',(0.,0.,-1.));
#419=DIRECTION('',(0.,0.,-1.));
#420=DIRECTION('',(0.,0.,1.));
#421=DIRECTION('',(0.,0.,1.));
#422=DIRECTION('',(1.,0.,0.));
#423=DIRECTION('',(0.,0.,-1.));
#424=DIRECTION('',(0.,0.,-1.));
#425=DIRECTION('',(1.,0.,0.));
#426=DIRECTION('',(0.,0.,1.));
#427=DIRECTION('',(1.,0.,0.));
#428=DIRECTION('',(0.,0.,-1.));
#429=DIRECTION('',(0.,0.,1.));
#430=DIRECTION('',(-1.,0.,0.));
#431=DIRECTION('',(0.,0.,-1.));
#432=DIRECTION('',(1.,0.,0.));
#433=DIRECTION('',(0.,0.,1.));
#434=DIRECTION('',(1.,0.,0.));
#435=DIRECTION('',(0.707106781186547,0.,0.707106781186548));
#436=DIRECTION('',(0.,-1.,0.));
#437=DIRECTION('',(0.,0.,-1.));
#438=DIRECTION('',(-1.,0.,0.));
#439=DIRECTION('',(0.,0.,1.));
#440=DIRECTION('',(1.,0.,0.));
#441=DIRECTION('',(-0.707106781186547,0.,-0.707106781186548));
#442=DIRECTION('',(-1.,0.,0.));
#443=DIRECTION('',(0.,0.,1.));
#444=DIRECTION('',(0.,1.,0.));
#445=DIRECTION('',(0.,0.,1.));
#446=DIRECTION('',(0.,0.,-1.));
#447=DIRECTION('',(1.,0.,0.));
#448=DIRECTION('',(0.,1.,0.));
#449=DIRECTION('',(0.,0.,-1.));
#450=DIRECTION('',(1.,0.,0.));
#451=DIRECTION('',(0.,0.,1.));
#452=DIRECTION('',(1.,0.,0.));
#453=DIRECTION('',(0.,1.,0.));
#454=DIRECTION('',(1.,0.,0.));
#455=DIRECTION('',(0.,0.,-1.));
#456=DIRECTION('',(0.,1.,0.));
#457=DIRECTION('',(0.,0.,1.));
#458=DIRECTION('',(1.,0.,0.));
#459=DIRECTION('',(0.,-1.,0.));
#460=DIRECTION('',(0.707106781186548,0.,-0.707106781186547));
#461=DIRECTION('',(-0.707106781186547,0.,-0.707106781186548));
#462=DIRECTION('',(0.,0.,-1.));
#463=DIRECTION('',(1.,0.,0.));
#464=DIRECTION('',(0.,0.,1.));
#465=DIRECTION('',(1.,0.,0.));
#466=DIRECTION('',(0.,0.,1.));
#467=DIRECTION('',(1.,0.,0.));
#468=DIRECTION('',(0.,0.,1.));
#469=DIRECTION('',(1.,0.,0.));
#470=DIRECTION('',(0.,0.,-1.));
#471=DIRECTION('',(0.,0.,1.));
#472=DIRECTION('',(1.,0.,0.));
#473=DIRECTION('',(0.,0.,1.));
#474=DIRECTION('',(0.,0.,-1.));
#475=DIRECTION('',(0.,0.,1.));
#476=DIRECTION('',(0.,0.,1.));
#477=DIRECTION('',(1.,0.,0.));
#478=DIRECTION('',(0.,0.,-1.));
#479=DIRECTION('',(1.,0.,0.));
#480=DIRECTION('',(0.,0.,1.));
#481=DIRECTION('',(1.,0.,-3.87053582600597E-16));
#482=DIRECTION('',(0.,0.,1.));
#483=DIRECTION('',(1.,0.,0.));
#484=CARTESIAN_POINT('',(0.,0.,0.));
#485=CARTESIAN_POINT('',(3.00000103310402,2.09017943708298E-6,-2.38));
#486=CARTESIAN_POINT('',(5.70777377810083,1.92348178490208E-5,-2.38));
#487=CARTESIAN_POINT('',(3.00000103310402,2.09017943795034E-6,-9.0767992324112E-22));
#488=CARTESIAN_POINT('',(6.00000103304389,2.10850952150655E-5,-2.66299311780499E-16));
#489=CARTESIAN_POINT('',(3.00000103310402,2.09017943795034E-6,-9.0767992324112E-22));
#490=CARTESIAN_POINT('',(3.00000103310402,2.09017943708298E-6,-2.38));
#491=CARTESIAN_POINT('',(3.00000103310402,2.09017943795034E-6,-9.0767992324112E-22));
#492=CARTESIAN_POINT('',(3.51795484284114,-2.65777275545125,-2.38));
#493=CARTESIAN_POINT('',(3.92744953874227,-2.65777278011833,-1.74205338249718));
#494=CARTESIAN_POINT('',(4.11080863327249,-2.65777283653467,-1.0179761373582));
#495=CARTESIAN_POINT('',(4.31018616067495,-2.65777291338185,-0.3));
#496=CARTESIAN_POINT('',(3.51795484284111,-2.65777275545125,-2.38));
#497=CARTESIAN_POINT('',(4.31018616067495,-2.65777291338186,-0.3));
#498=CARTESIAN_POINT('',(3.,-2.65777274505109,-2.38));
#499=CARTESIAN_POINT('',(7.00000000000782,-2.65777274505109,-2.38));
#500=CARTESIAN_POINT('',(11.0000000000156,-2.65777274505109,-2.38));
#501=CARTESIAN_POINT('',(14.9999999958417,-2.65790207771145,-2.38));
#502=CARTESIAN_POINT('',(3.,-2.65777274505109,-2.38));
#503=CARTESIAN_POINT('',(3.,-2.65777274505109,-35.));
#504=CARTESIAN_POINT('',(3.,-2.65777274505109,-16.));
#505=CARTESIAN_POINT('',(14.9999999958417,-2.65790207771145,-16.));
#506=CARTESIAN_POINT('',(11.0000000000156,-2.65777274505109,-16.));
#507=CARTESIAN_POINT('',(7.00000000000782,-2.65777274505109,-16.));
#508=CARTESIAN_POINT('',(3.,-2.65777274505109,-16.));
#509=CARTESIAN_POINT('',(14.9999999958417,-2.65790207771145,-16.));
#510=CARTESIAN_POINT('',(14.9999999958417,-2.65790207771145,-35.));
#511=CARTESIAN_POINT('',(14.9999999958417,-2.65790207771145,-0.3));
#512=CARTESIAN_POINT('',(3.,-2.65777274505109,-0.3));
#513=CARTESIAN_POINT('',(7.00000000000782,-2.65777274505109,-0.3));
#514=CARTESIAN_POINT('',(11.0000000000156,-2.65777274505109,-0.3));
#515=CARTESIAN_POINT('',(14.9999999958417,-2.65790207771145,-0.3));
#516=CARTESIAN_POINT('',(14.9999999958417,-2.65790207771145,-35.));
#517=CARTESIAN_POINT('',(11.0000000000156,-2.65777274505109,-35.));
#518=CARTESIAN_POINT('',(7.00000000000782,-2.65777274505109,-35.));
#519=CARTESIAN_POINT('',(3.,-2.65777274505109,-35.));
#520=CARTESIAN_POINT('',(3.,-4.33680868994202E-16,-2.38));
#521=CARTESIAN_POINT('',(3.,2.65777274505109,-2.38));
#522=CARTESIAN_POINT('',(3.,2.65777274505109,-35.));
#523=CARTESIAN_POINT('',(3.,2.65777274505109,-16.));
#524=CARTESIAN_POINT('',(3.,-4.33680868994202E-16,-16.));
#525=CARTESIAN_POINT('',(3.,-4.33680868994202E-16,-35.));
#526=CARTESIAN_POINT('',(4.31018616067495,2.65777291338185,-0.3));
#527=CARTESIAN_POINT('',(4.11080863327249,2.65777283653467,-1.01797613735821));
#528=CARTESIAN_POINT('',(3.92744953874227,2.65777278011833,-1.74205338249718));
#529=CARTESIAN_POINT('',(3.51795484284113,2.65777275545125,-2.38));
#530=CARTESIAN_POINT('',(4.31018616067495,2.65777291338185,-0.3));
#531=CARTESIAN_POINT('',(3.51795484284111,2.65777275545125,-2.38));
#532=CARTESIAN_POINT('',(14.999999995841,2.65790207771134,-0.3));
#533=CARTESIAN_POINT('',(11.0000000000152,2.65777274505109,-0.3));
#534=CARTESIAN_POINT('',(7.00000000000759,2.65777274505109,-0.3));
#535=CARTESIAN_POINT('',(3.,2.65777274505109,-0.3));
#536=CARTESIAN_POINT('',(14.999999995841,2.65790207771134,-0.3));
#537=CARTESIAN_POINT('',(14.999999995841,2.65790207771134,-35.));
#538=CARTESIAN_POINT('',(14.999999995841,2.65790207771134,-16.));
#539=CARTESIAN_POINT('',(3.,2.65777274505109,-16.));
#540=CARTESIAN_POINT('',(7.00000000000759,2.65777274505109,-16.));
#541=CARTESIAN_POINT('',(11.0000000000152,2.65777274505109,-16.));
#542=CARTESIAN_POINT('',(14.999999995841,2.65790207771134,-16.));
#543=CARTESIAN_POINT('',(14.999999995841,2.65790207771134,-2.38));
#544=CARTESIAN_POINT('',(11.0000000000152,2.65777274505109,-2.38));
#545=CARTESIAN_POINT('',(7.00000000000759,2.65777274505109,-2.38));
#546=CARTESIAN_POINT('',(3.,2.65777274505109,-2.38));
#547=CARTESIAN_POINT('',(3.,2.65777274505109,-35.));
#548=CARTESIAN_POINT('',(7.00000000000759,2.65777274505109,-35.));
#549=CARTESIAN_POINT('',(11.0000000000152,2.65777274505109,-35.));
#550=CARTESIAN_POINT('',(14.999999995841,2.65790207771134,-35.));
#551=CARTESIAN_POINT('',(0.,-8.,-0.3));
#552=CARTESIAN_POINT('',(27.7,-8.,-0.3));
#553=CARTESIAN_POINT('',(27.6490479787082,-8.,-0.3));
#554=CARTESIAN_POINT('',(27.6490479787082,-8.,-35.));
#555=CARTESIAN_POINT('',(27.6490479787082,-8.,-16.));
#556=CARTESIAN_POINT('',(0.,-8.,-16.));
#557=CARTESIAN_POINT('',(100.,-8.,-16.));
#558=CARTESIAN_POINT('',(100.,-8.,-16.));
#559=CARTESIAN_POINT('',(100.,-8.,0.));
#560=CARTESIAN_POINT('',(0.,-8.,0.));
#561=CARTESIAN_POINT('',(28.,-8.,0.));
#562=CARTESIAN_POINT('',(6.,-8.,-22.));
#563=CARTESIAN_POINT('',(0.,-8.,-16.));
#564=CARTESIAN_POINT('',(100.,8.,-16.));
#565=CARTESIAN_POINT('',(100.,8.,-16.));
#566=CARTESIAN_POINT('',(27.6490479787082,8.,-16.));
#567=CARTESIAN_POINT('',(27.6490479787082,8.,-35.));
#568=CARTESIAN_POINT('',(27.6490479787082,8.,-0.3));
#569=CARTESIAN_POINT('',(100.,8.,-0.3));
#570=CARTESIAN_POINT('',(27.7,8.,-0.3));
#571=CARTESIAN_POINT('',(56.,8.,28.));
#572=CARTESIAN_POINT('',(28.,8.,0.));
#573=CARTESIAN_POINT('',(100.,8.,0.));
#574=CARTESIAN_POINT('',(100.,8.,0.));
#575=CARTESIAN_POINT('',(100.,8.,-16.));
#576=CARTESIAN_POINT('',(100.,8.,-16.));
#577=CARTESIAN_POINT('',(14.999999995841,2.65790207771135,-16.));
#578=CARTESIAN_POINT('',(18.1815626550342,2.65800494770208,-16.));
#579=CARTESIAN_POINT('',(21.1444123981219,3.81725573228953,-16.));
#580=CARTESIAN_POINT('',(23.4813512983647,5.9762039850769,-16.));
#581=CARTESIAN_POINT('',(23.4813512983647,5.9762039850769,-16.));
#582=CARTESIAN_POINT('',(28.91,0.0999999999999977,-16.));
#583=CARTESIAN_POINT('',(100.,-8.,-16.));
#584=CARTESIAN_POINT('',(28.91,-0.0999999999999976,-16.));
#585=CARTESIAN_POINT('',(23.4813512983647,-5.97620398507691,-16.));
#586=CARTESIAN_POINT('',(23.4813512983647,-5.97620398507691,-16.));
#587=CARTESIAN_POINT('',(21.1444123981221,-3.81725573228971,-16.));
#588=CARTESIAN_POINT('',(18.1815626550347,-2.65800494770226,-16.));
#589=CARTESIAN_POINT('',(14.9999999958417,-2.65790207771145,-16.));
#590=CARTESIAN_POINT('',(0.,0.,-16.));
#591=CARTESIAN_POINT('',(100.,-8.,0.));
#592=CARTESIAN_POINT('',(100.,-8.,-16.));
#593=CARTESIAN_POINT('',(28.,-9.,0.));
#594=CARTESIAN_POINT('',(0.,0.,0.));
#595=CARTESIAN_POINT('',(27.7,0.,-0.3));
#596=CARTESIAN_POINT('',(28.,-9.,0.));
#597=CARTESIAN_POINT('',(3.,-4.33680868994135E-16,-0.3));
#598=CARTESIAN_POINT('',(14.9999999958417,-2.65790207771145,-0.3));
#599=CARTESIAN_POINT('',(18.1815626550347,-2.65800494770226,-0.299999999999997));
#600=CARTESIAN_POINT('',(21.1444123981221,-3.81725573228971,-0.299999999999997));
#601=CARTESIAN_POINT('',(23.4813512983647,-5.97620398507691,-0.3));
#602=CARTESIAN_POINT('',(23.4813512983647,-5.97620398507691,-0.3));
#603=CARTESIAN_POINT('',(28.91,-0.0999999999999976,-0.3));
#604=CARTESIAN_POINT('',(28.91,0.0999999999999977,-0.3));
#605=CARTESIAN_POINT('',(23.4813512983647,5.9762039850769,-0.3));
#606=CARTESIAN_POINT('',(23.4813512983647,5.9762039850769,-0.299999999999999));
#607=CARTESIAN_POINT('',(21.1444123981219,3.81725573228953,-0.299999999999998));
#608=CARTESIAN_POINT('',(18.1815626550342,2.65800494770208,-0.299999999999998));
#609=CARTESIAN_POINT('',(14.999999995841,2.65790207771135,-0.299999999999999));
#610=CARTESIAN_POINT('',(0.,0.,-0.3));
#611=CARTESIAN_POINT('',(23.4813512983647,-5.9762039850769,-35.));
#612=CARTESIAN_POINT('',(28.91,-0.0999999999999976,-35.));
#613=CARTESIAN_POINT('',(23.4813512983647,-5.97620398507691,-35.));
#614=CARTESIAN_POINT('',(21.1444123981221,-3.81725573228971,-35.));
#615=CARTESIAN_POINT('',(18.1815626550347,-2.65800494770226,-35.));
#616=CARTESIAN_POINT('',(14.9999999958417,-2.65790207771145,-35.));
#617=CARTESIAN_POINT('',(23.4813512983647,5.9762039850769,-35.));
#618=CARTESIAN_POINT('',(14.999999995841,2.65790207771135,-35.));
#619=CARTESIAN_POINT('',(18.1815626550342,2.65800494770208,-35.));
#620=CARTESIAN_POINT('',(21.1444123981219,3.81725573228953,-35.));
#621=CARTESIAN_POINT('',(23.4813512983647,5.9762039850769,-35.));
#622=CARTESIAN_POINT('',(28.91,0.0999999999999977,-35.));
#623=CARTESIAN_POINT('',(3.,-4.33680868994135E-16,-2.38));
#624=CARTESIAN_POINT('',(3.,-4.33680868994135E-16,-2.38));
#625=CARTESIAN_POINT('',(3.,-4.33680868994135E-16,-2.38));
#626=(
GEOMETRIC_REPRESENTATION_CONTEXT(3)
GLOBAL_UNCERTAINTY_ASSIGNED_CONTEXT((#627))
GLOBAL_UNIT_ASSIGNED_CONTEXT((#633,#629,#628))
REPRESENTATION_CONTEXT('SRDCN-1616-H06','TOP_LEVEL_ASSEMBLY_PART')
);
#627=UNCERTAINTY_MEASURE_WITH_UNIT(LENGTH_MEASURE(0.0508),#633,
'DISTANCE_ACCURACY_VALUE','Maximum Tolerance applied to model');
#628=(
NAMED_UNIT(*)
SI_UNIT($,.STERADIAN.)
SOLID_ANGLE_UNIT()
);
#629=(
CONVERSION_BASED_UNIT('DEGREE',#631)
NAMED_UNIT(#630)
PLANE_ANGLE_UNIT()
);
#630=DIMENSIONAL_EXPONENTS(0.,0.,0.,0.,0.,0.,0.);
#631=PLANE_ANGLE_MEASURE_WITH_UNIT(PLANE_ANGLE_MEASURE(0.0174532925),#632);
#632=(
NAMED_UNIT(*)
PLANE_ANGLE_UNIT()
SI_UNIT($,.RADIAN.)
);
#633=(
LENGTH_UNIT()
NAMED_UNIT(*)
SI_UNIT(.MILLI.,.METRE.)
);
ENDSEC;
END-ISO-10303-21;
