ISO-10303-21;
HEADER;
/* Generated by software containing ST-Developer
 * from STEP Tools, Inc. (www.steptools.com) 
 */
/* OPTION: using custom schema-name function */

FILE_DESCRIPTION(
/* description */ (''),
/* implementation_level */ '2;1');

FILE_NAME(
/* name */ 'SRDCN-2525-M06.stp',
/* time_stamp */ '2023-10-13T19:09:40+03:00',
/* author */ (''),
/* organization */ (''),
/* preprocessor_version */ 'ST-DEVELOPER v19.4',
/* originating_system */ 'SIEMENS PLM Software NX2306.3001',
/* authorisation */ '');

FILE_SCHEMA (('AUTOMOTIVE_DESIGN { 1 0 10303 214 3 1 1 1 }'));
ENDSEC;

DATA;
#10=SHAPE_REPRESENTATION_RELATIONSHIP('None',
'relationship between model1-None and model1-None',#22,#11);
#11=ADVANCED_BREP_SHAPE_REPRESENTATION('model1-None',(#64,#65),#620);
#12=SHAPE_DEFINITION_REPRESENTATION(#13,#22);
#13=PRODUCT_DEFINITION_SHAPE('','',#14);
#14=PRODUCT_DEFINITION(' ','',#16,#15);
#15=PRODUCT_DEFINITION_CONTEXT('part definition',#21,'design');
#16=PRODUCT_DEFINITION_FORMATION_WITH_SPECIFIED_SOURCE(' ',' ',#18,
 .NOT_KNOWN.);
#17=PRODUCT_RELATED_PRODUCT_CATEGORY('part','',(#18));
#18=PRODUCT('model1','model1',' ',(#19));
#19=PRODUCT_CONTEXT(' ',#21,'mechanical');
#20=APPLICATION_PROTOCOL_DEFINITION('international standard',
'automotive_design',2010,#21);
#21=APPLICATION_CONTEXT(
'core data for automotive mechanical design processes');
#22=SHAPE_REPRESENTATION('model1-None',(#378),#620);
#23=OVER_RIDING_STYLED_ITEM('',(#34),#105,#31);
#24=OVER_RIDING_STYLED_ITEM('',(#35),#106,#31);
#25=OVER_RIDING_STYLED_ITEM('',(#36),#107,#31);
#26=DRAUGHTING_PRE_DEFINED_COLOUR('yellow');
#27=FACE_BOUND('',#154,.T.);
#28=FACE_BOUND('',#155,.T.);
#29=PRESENTATION_LAYER_ASSIGNMENT('1','Layer 1',(#64,#65));
#30=STYLED_ITEM('',(#32),#64);
#31=STYLED_ITEM('',(#33),#65);
#32=PRESENTATION_STYLE_ASSIGNMENT((#37));
#33=PRESENTATION_STYLE_ASSIGNMENT((#38));
#34=PRESENTATION_STYLE_ASSIGNMENT((#39));
#35=PRESENTATION_STYLE_ASSIGNMENT((#40));
#36=PRESENTATION_STYLE_ASSIGNMENT((#41));
#37=SURFACE_STYLE_USAGE(.BOTH.,#42);
#38=SURFACE_STYLE_USAGE(.BOTH.,#43);
#39=SURFACE_STYLE_USAGE(.BOTH.,#44);
#40=SURFACE_STYLE_USAGE(.BOTH.,#45);
#41=SURFACE_STYLE_USAGE(.BOTH.,#46);
#42=SURFACE_SIDE_STYLE('',(#47));
#43=SURFACE_SIDE_STYLE('',(#48));
#44=SURFACE_SIDE_STYLE('',(#49));
#45=SURFACE_SIDE_STYLE('',(#50));
#46=SURFACE_SIDE_STYLE('',(#51));
#47=SURFACE_STYLE_FILL_AREA(#52);
#48=SURFACE_STYLE_FILL_AREA(#53);
#49=SURFACE_STYLE_FILL_AREA(#54);
#50=SURFACE_STYLE_FILL_AREA(#55);
#51=SURFACE_STYLE_FILL_AREA(#56);
#52=FILL_AREA_STYLE('',(#57));
#53=FILL_AREA_STYLE('',(#58));
#54=FILL_AREA_STYLE('',(#59));
#55=FILL_AREA_STYLE('',(#60));
#56=FILL_AREA_STYLE('',(#61));
#57=FILL_AREA_STYLE_COLOUR('',#62);
#58=FILL_AREA_STYLE_COLOUR('',#63);
#59=FILL_AREA_STYLE_COLOUR('',#26);
#60=FILL_AREA_STYLE_COLOUR('',#26);
#61=FILL_AREA_STYLE_COLOUR('',#26);
#62=COLOUR_RGB('light gray',0.8,0.8,0.8);
#63=COLOUR_RGB('Medium Steel',0.611764705882353,0.658823529411765,0.670588235294118);
#64=MANIFOLD_SOLID_BREP('',#66);
#65=MANIFOLD_SOLID_BREP('',#67);
#66=CLOSED_SHELL('',(#89,#90,#91,#92,#93,#94,#95,#96,#97,#98,#99,#100,#101,
#102,#103,#104));
#67=CLOSED_SHELL('',(#105,#106,#107));
#68=CONICAL_SURFACE('',#405,2.70777274505108,7.);
#69=CONICAL_SURFACE('',#409,3.,7.00000000000002);
#70=CYLINDRICAL_SURFACE('',#382,2.65777274505109);
#71=CYLINDRICAL_SURFACE('',#400,8.);
#72=CYLINDRICAL_SURFACE('',#401,12.5);
#73=CYLINDRICAL_SURFACE('',#402,12.5);
#74=CYLINDRICAL_SURFACE('',#403,8.);
#75=CIRCLE('',#380,2.65777274505109);
#76=CIRCLE('',#381,2.65777274505109);
#77=CIRCLE('',#386,12.5);
#78=CIRCLE('',#387,8.);
#79=CIRCLE('',#388,8.);
#80=CIRCLE('',#389,12.5);
#81=CIRCLE('',#394,2.96316463172913);
#82=CIRCLE('',#395,12.5);
#83=CIRCLE('',#396,8.);
#84=CIRCLE('',#397,8.);
#85=CIRCLE('',#398,12.5);
#86=CIRCLE('',#404,2.70777274505108);
#87=CIRCLE('',#407,2.70777274505108);
#88=CIRCLE('',#408,3.);
#89=ADVANCED_FACE('',(#120),#108,.F.);
#90=ADVANCED_FACE('',(#121),#70,.T.);
#91=ADVANCED_FACE('',(#122),#109,.F.);
#92=ADVANCED_FACE('',(#123),#110,.T.);
#93=ADVANCED_FACE('',(#124),#111,.T.);
#94=ADVANCED_FACE('',(#125),#112,.F.);
#95=ADVANCED_FACE('',(#126),#113,.T.);
#96=ADVANCED_FACE('',(#127),#114,.T.);
#97=ADVANCED_FACE('',(#128),#115,.F.);
#98=ADVANCED_FACE('',(#129),#116,.T.);
#99=ADVANCED_FACE('',(#130),#71,.T.);
#100=ADVANCED_FACE('',(#131),#72,.F.);
#101=ADVANCED_FACE('',(#132),#73,.F.);
#102=ADVANCED_FACE('',(#133),#74,.T.);
#103=ADVANCED_FACE('',(#134),#68,.F.);
#104=ADVANCED_FACE('',(#135),#117,.T.);
#105=ADVANCED_FACE('',(#27,#28),#69,.T.);
#106=ADVANCED_FACE('',(#136),#118,.F.);
#107=ADVANCED_FACE('',(#137),#119,.T.);
#108=PLANE('',#379);
#109=PLANE('',#383);
#110=PLANE('',#384);
#111=PLANE('',#385);
#112=PLANE('',#390);
#113=PLANE('',#391);
#114=PLANE('',#392);
#115=PLANE('',#393);
#116=PLANE('',#399);
#117=PLANE('',#406);
#118=PLANE('',#410);
#119=PLANE('',#411);
#120=FACE_OUTER_BOUND('',#138,.T.);
#121=FACE_OUTER_BOUND('',#139,.T.);
#122=FACE_OUTER_BOUND('',#140,.T.);
#123=FACE_OUTER_BOUND('',#141,.T.);
#124=FACE_OUTER_BOUND('',#142,.T.);
#125=FACE_OUTER_BOUND('',#143,.T.);
#126=FACE_OUTER_BOUND('',#144,.T.);
#127=FACE_OUTER_BOUND('',#145,.T.);
#128=FACE_OUTER_BOUND('',#146,.T.);
#129=FACE_OUTER_BOUND('',#147,.T.);
#130=FACE_OUTER_BOUND('',#148,.T.);
#131=FACE_OUTER_BOUND('',#149,.T.);
#132=FACE_OUTER_BOUND('',#150,.T.);
#133=FACE_OUTER_BOUND('',#151,.T.);
#134=FACE_OUTER_BOUND('',#152,.T.);
#135=FACE_OUTER_BOUND('',#153,.T.);
#136=FACE_OUTER_BOUND('',#156,.T.);
#137=FACE_OUTER_BOUND('',#157,.T.);
#138=EDGE_LOOP('',(#214,#215,#216,#217,#218,#219));
#139=EDGE_LOOP('',(#220,#221,#222,#223));
#140=EDGE_LOOP('',(#224,#225,#226,#227,#228,#229));
#141=EDGE_LOOP('',(#230,#231,#232,#233,#234,#235));
#142=EDGE_LOOP('',(#236,#237,#238,#239,#240,#241));
#143=EDGE_LOOP('',(#242,#243,#244,#245,#246,#247,#248,#249,#250,#251));
#144=EDGE_LOOP('',(#252,#253,#254,#255));
#145=EDGE_LOOP('',(#256,#257,#258,#259));
#146=EDGE_LOOP('',(#260,#261,#262,#263));
#147=EDGE_LOOP('',(#264,#265,#266,#267,#268,#269,#270,#271,#272,#273));
#148=EDGE_LOOP('',(#274,#275,#276,#277));
#149=EDGE_LOOP('',(#278,#279,#280,#281));
#150=EDGE_LOOP('',(#282,#283,#284,#285));
#151=EDGE_LOOP('',(#286,#287,#288,#289));
#152=EDGE_LOOP('',(#290,#291,#292,#293));
#153=EDGE_LOOP('',(#294,#295,#296,#297));
#154=EDGE_LOOP('',(#298));
#155=EDGE_LOOP('',(#299));
#156=EDGE_LOOP('',(#300));
#157=EDGE_LOOP('',(#301));
#158=LINE('',#518,#186);
#159=LINE('',#520,#187);
#160=LINE('',#522,#188);
#161=LINE('',#524,#189);
#162=LINE('',#526,#190);
#163=LINE('',#530,#191);
#164=LINE('',#549,#192);
#165=LINE('',#551,#193);
#166=LINE('',#553,#194);
#167=LINE('',#554,#195);
#168=LINE('',#556,#196);
#169=LINE('',#559,#197);
#170=LINE('',#561,#198);
#171=LINE('',#563,#199);
#172=LINE('',#565,#200);
#173=LINE('',#567,#201);
#174=LINE('',#569,#202);
#175=LINE('',#572,#203);
#176=LINE('',#574,#204);
#177=LINE('',#576,#205);
#178=LINE('',#578,#206);
#179=LINE('',#580,#207);
#180=LINE('',#585,#208);
#181=LINE('',#590,#209);
#182=LINE('',#592,#210);
#183=LINE('',#594,#211);
#184=LINE('',#604,#212);
#185=LINE('',#607,#213);
#186=VECTOR('',#414,1.);
#187=VECTOR('',#415,1.);
#188=VECTOR('',#416,1.);
#189=VECTOR('',#417,1.);
#190=VECTOR('',#418,1.);
#191=VECTOR('',#423,1.);
#192=VECTOR('',#428,1.);
#193=VECTOR('',#429,1.);
#194=VECTOR('',#430,1.);
#195=VECTOR('',#431,1.);
#196=VECTOR('',#434,1.);
#197=VECTOR('',#435,1.);
#198=VECTOR('',#436,1.);
#199=VECTOR('',#437,1.);
#200=VECTOR('',#438,1.);
#201=VECTOR('',#439,1.);
#202=VECTOR('',#442,1.);
#203=VECTOR('',#443,1.);
#204=VECTOR('',#444,1.);
#205=VECTOR('',#445,1.);
#206=VECTOR('',#446,1.);
#207=VECTOR('',#447,1.);
#208=VECTOR('',#454,1.);
#209=VECTOR('',#461,1.);
#210=VECTOR('',#464,1.);
#211=VECTOR('',#467,1.);
#212=VECTOR('',#482,1.);
#213=VECTOR('',#487,1.);
#214=ORIENTED_EDGE('',*,*,#332,.F.);
#215=ORIENTED_EDGE('',*,*,#333,.F.);
#216=ORIENTED_EDGE('',*,*,#334,.T.);
#217=ORIENTED_EDGE('',*,*,#335,.F.);
#218=ORIENTED_EDGE('',*,*,#336,.F.);
#219=ORIENTED_EDGE('',*,*,#337,.F.);
#220=ORIENTED_EDGE('',*,*,#338,.F.);
#221=ORIENTED_EDGE('',*,*,#339,.T.);
#222=ORIENTED_EDGE('',*,*,#340,.F.);
#223=ORIENTED_EDGE('',*,*,#334,.F.);
#224=ORIENTED_EDGE('',*,*,#341,.F.);
#225=ORIENTED_EDGE('',*,*,#342,.F.);
#226=ORIENTED_EDGE('',*,*,#343,.T.);
#227=ORIENTED_EDGE('',*,*,#344,.F.);
#228=ORIENTED_EDGE('',*,*,#339,.F.);
#229=ORIENTED_EDGE('',*,*,#345,.F.);
#230=ORIENTED_EDGE('',*,*,#346,.T.);
#231=ORIENTED_EDGE('',*,*,#347,.T.);
#232=ORIENTED_EDGE('',*,*,#348,.T.);
#233=ORIENTED_EDGE('',*,*,#349,.T.);
#234=ORIENTED_EDGE('',*,*,#350,.F.);
#235=ORIENTED_EDGE('',*,*,#351,.F.);
#236=ORIENTED_EDGE('',*,*,#352,.T.);
#237=ORIENTED_EDGE('',*,*,#353,.T.);
#238=ORIENTED_EDGE('',*,*,#354,.T.);
#239=ORIENTED_EDGE('',*,*,#355,.F.);
#240=ORIENTED_EDGE('',*,*,#356,.F.);
#241=ORIENTED_EDGE('',*,*,#357,.F.);
#242=ORIENTED_EDGE('',*,*,#358,.T.);
#243=ORIENTED_EDGE('',*,*,#359,.T.);
#244=ORIENTED_EDGE('',*,*,#352,.F.);
#245=ORIENTED_EDGE('',*,*,#360,.F.);
#246=ORIENTED_EDGE('',*,*,#348,.F.);
#247=ORIENTED_EDGE('',*,*,#361,.T.);
#248=ORIENTED_EDGE('',*,*,#362,.T.);
#249=ORIENTED_EDGE('',*,*,#335,.T.);
#250=ORIENTED_EDGE('',*,*,#340,.T.);
#251=ORIENTED_EDGE('',*,*,#344,.T.);
#252=ORIENTED_EDGE('',*,*,#363,.F.);
#253=ORIENTED_EDGE('',*,*,#349,.F.);
#254=ORIENTED_EDGE('',*,*,#360,.T.);
#255=ORIENTED_EDGE('',*,*,#357,.T.);
#256=ORIENTED_EDGE('',*,*,#364,.F.);
#257=ORIENTED_EDGE('',*,*,#350,.T.);
#258=ORIENTED_EDGE('',*,*,#363,.T.);
#259=ORIENTED_EDGE('',*,*,#356,.T.);
#260=ORIENTED_EDGE('',*,*,#351,.T.);
#261=ORIENTED_EDGE('',*,*,#364,.T.);
#262=ORIENTED_EDGE('',*,*,#355,.T.);
#263=ORIENTED_EDGE('',*,*,#365,.T.);
#264=ORIENTED_EDGE('',*,*,#342,.T.);
#265=ORIENTED_EDGE('',*,*,#366,.T.);
#266=ORIENTED_EDGE('',*,*,#337,.T.);
#267=ORIENTED_EDGE('',*,*,#367,.T.);
#268=ORIENTED_EDGE('',*,*,#368,.T.);
#269=ORIENTED_EDGE('',*,*,#346,.F.);
#270=ORIENTED_EDGE('',*,*,#365,.F.);
#271=ORIENTED_EDGE('',*,*,#354,.F.);
#272=ORIENTED_EDGE('',*,*,#369,.T.);
#273=ORIENTED_EDGE('',*,*,#370,.T.);
#274=ORIENTED_EDGE('',*,*,#371,.T.);
#275=ORIENTED_EDGE('',*,*,#361,.F.);
#276=ORIENTED_EDGE('',*,*,#347,.F.);
#277=ORIENTED_EDGE('',*,*,#368,.F.);
#278=ORIENTED_EDGE('',*,*,#336,.T.);
#279=ORIENTED_EDGE('',*,*,#362,.F.);
#280=ORIENTED_EDGE('',*,*,#371,.F.);
#281=ORIENTED_EDGE('',*,*,#367,.F.);
#282=ORIENTED_EDGE('',*,*,#372,.T.);
#283=ORIENTED_EDGE('',*,*,#358,.F.);
#284=ORIENTED_EDGE('',*,*,#343,.F.);
#285=ORIENTED_EDGE('',*,*,#370,.F.);
#286=ORIENTED_EDGE('',*,*,#353,.F.);
#287=ORIENTED_EDGE('',*,*,#359,.F.);
#288=ORIENTED_EDGE('',*,*,#372,.F.);
#289=ORIENTED_EDGE('',*,*,#369,.F.);
#290=ORIENTED_EDGE('',*,*,#332,.T.);
#291=ORIENTED_EDGE('',*,*,#366,.F.);
#292=ORIENTED_EDGE('',*,*,#341,.T.);
#293=ORIENTED_EDGE('',*,*,#373,.T.);
#294=ORIENTED_EDGE('',*,*,#333,.T.);
#295=ORIENTED_EDGE('',*,*,#373,.F.);
#296=ORIENTED_EDGE('',*,*,#345,.T.);
#297=ORIENTED_EDGE('',*,*,#338,.T.);
#298=ORIENTED_EDGE('',*,*,#374,.T.);
#299=ORIENTED_EDGE('',*,*,#375,.F.);
#300=ORIENTED_EDGE('',*,*,#374,.F.);
#301=ORIENTED_EDGE('',*,*,#375,.T.);
#302=VERTEX_POINT('',#516);
#303=VERTEX_POINT('',#517);
#304=VERTEX_POINT('',#519);
#305=VERTEX_POINT('',#521);
#306=VERTEX_POINT('',#523);
#307=VERTEX_POINT('',#525);
#308=VERTEX_POINT('',#529);
#309=VERTEX_POINT('',#531);
#310=VERTEX_POINT('',#547);
#311=VERTEX_POINT('',#548);
#312=VERTEX_POINT('',#550);
#313=VERTEX_POINT('',#552);
#314=VERTEX_POINT('',#557);
#315=VERTEX_POINT('',#558);
#316=VERTEX_POINT('',#560);
#317=VERTEX_POINT('',#562);
#318=VERTEX_POINT('',#564);
#319=VERTEX_POINT('',#566);
#320=VERTEX_POINT('',#570);
#321=VERTEX_POINT('',#571);
#322=VERTEX_POINT('',#573);
#323=VERTEX_POINT('',#575);
#324=VERTEX_POINT('',#577);
#325=VERTEX_POINT('',#579);
#326=VERTEX_POINT('',#583);
#327=VERTEX_POINT('',#587);
#328=VERTEX_POINT('',#598);
#329=VERTEX_POINT('',#601);
#330=VERTEX_POINT('',#614);
#331=VERTEX_POINT('',#616);
#332=EDGE_CURVE('',#302,#303,#376,.T.);
#333=EDGE_CURVE('',#304,#302,#158,.T.);
#334=EDGE_CURVE('',#304,#305,#159,.T.);
#335=EDGE_CURVE('',#306,#305,#160,.T.);
#336=EDGE_CURVE('',#307,#306,#161,.T.);
#337=EDGE_CURVE('',#303,#307,#162,.T.);
#338=EDGE_CURVE('',#308,#304,#75,.T.);
#339=EDGE_CURVE('',#308,#309,#163,.T.);
#340=EDGE_CURVE('',#305,#309,#76,.T.);
#341=EDGE_CURVE('',#310,#311,#377,.T.);
#342=EDGE_CURVE('',#312,#310,#164,.T.);
#343=EDGE_CURVE('',#312,#313,#165,.T.);
#344=EDGE_CURVE('',#309,#313,#166,.T.);
#345=EDGE_CURVE('',#311,#308,#167,.T.);
#346=EDGE_CURVE('',#314,#315,#168,.T.);
#347=EDGE_CURVE('',#315,#316,#169,.T.);
#348=EDGE_CURVE('',#316,#317,#170,.T.);
#349=EDGE_CURVE('',#317,#318,#171,.T.);
#350=EDGE_CURVE('',#319,#318,#172,.T.);
#351=EDGE_CURVE('',#314,#319,#173,.T.);
#352=EDGE_CURVE('',#320,#321,#174,.T.);
#353=EDGE_CURVE('',#321,#322,#175,.T.);
#354=EDGE_CURVE('',#322,#323,#176,.T.);
#355=EDGE_CURVE('',#324,#323,#177,.T.);
#356=EDGE_CURVE('',#325,#324,#178,.T.);
#357=EDGE_CURVE('',#320,#325,#179,.T.);
#358=EDGE_CURVE('',#313,#326,#77,.T.);
#359=EDGE_CURVE('',#326,#321,#78,.T.);
#360=EDGE_CURVE('',#317,#320,#180,.T.);
#361=EDGE_CURVE('',#316,#327,#79,.T.);
#362=EDGE_CURVE('',#327,#306,#80,.T.);
#363=EDGE_CURVE('',#318,#325,#181,.T.);
#364=EDGE_CURVE('',#319,#324,#182,.T.);
#365=EDGE_CURVE('',#323,#314,#183,.T.);
#366=EDGE_CURVE('',#310,#303,#81,.T.);
#367=EDGE_CURVE('',#307,#328,#82,.T.);
#368=EDGE_CURVE('',#328,#315,#83,.T.);
#369=EDGE_CURVE('',#322,#329,#84,.T.);
#370=EDGE_CURVE('',#329,#312,#85,.T.);
#371=EDGE_CURVE('',#328,#327,#184,.T.);
#372=EDGE_CURVE('',#329,#326,#185,.T.);
#373=EDGE_CURVE('',#311,#302,#86,.T.);
#374=EDGE_CURVE('',#330,#330,#87,.T.);
#375=EDGE_CURVE('',#331,#331,#88,.T.);
#376=B_SPLINE_CURVE_WITH_KNOTS('',3,(#509,#510,#511,#512,#513,#514,#515),
 .UNSPECIFIED.,.F.,.F.,(4,3,4),(0.,0.465275522243615,1.),.UNSPECIFIED.);
#377=B_SPLINE_CURVE_WITH_KNOTS('',3,(#534,#535,#536,#537,#538,#539,#540,
#541,#542,#543,#544,#545,#546),.UNSPECIFIED.,.F.,.F.,(4,3,3,3,4),(0.,0.422399402557442,
0.70932880892143,0.906058835969956,1.),.UNSPECIFIED.);
#378=AXIS2_PLACEMENT_3D('',#508,#412,#413);
#379=AXIS2_PLACEMENT_3D('',#527,#419,#420);
#380=AXIS2_PLACEMENT_3D('',#528,#421,#422);
#381=AXIS2_PLACEMENT_3D('',#532,#424,#425);
#382=AXIS2_PLACEMENT_3D('',#533,#426,#427);
#383=AXIS2_PLACEMENT_3D('',#555,#432,#433);
#384=AXIS2_PLACEMENT_3D('',#568,#440,#441);
#385=AXIS2_PLACEMENT_3D('',#581,#448,#449);
#386=AXIS2_PLACEMENT_3D('',#582,#450,#451);
#387=AXIS2_PLACEMENT_3D('',#584,#452,#453);
#388=AXIS2_PLACEMENT_3D('',#586,#455,#456);
#389=AXIS2_PLACEMENT_3D('',#588,#457,#458);
#390=AXIS2_PLACEMENT_3D('',#589,#459,#460);
#391=AXIS2_PLACEMENT_3D('',#591,#462,#463);
#392=AXIS2_PLACEMENT_3D('',#593,#465,#466);
#393=AXIS2_PLACEMENT_3D('',#595,#468,#469);
#394=AXIS2_PLACEMENT_3D('',#596,#470,#471);
#395=AXIS2_PLACEMENT_3D('',#597,#472,#473);
#396=AXIS2_PLACEMENT_3D('',#599,#474,#475);
#397=AXIS2_PLACEMENT_3D('',#600,#476,#477);
#398=AXIS2_PLACEMENT_3D('',#602,#478,#479);
#399=AXIS2_PLACEMENT_3D('',#603,#480,#481);
#400=AXIS2_PLACEMENT_3D('',#605,#483,#484);
#401=AXIS2_PLACEMENT_3D('',#606,#485,#486);
#402=AXIS2_PLACEMENT_3D('',#608,#488,#489);
#403=AXIS2_PLACEMENT_3D('',#609,#490,#491);
#404=AXIS2_PLACEMENT_3D('',#610,#492,#493);
#405=AXIS2_PLACEMENT_3D('',#611,#494,#495);
#406=AXIS2_PLACEMENT_3D('',#612,#496,#497);
#407=AXIS2_PLACEMENT_3D('',#613,#498,#499);
#408=AXIS2_PLACEMENT_3D('',#615,#500,#501);
#409=AXIS2_PLACEMENT_3D('',#617,#502,#503);
#410=AXIS2_PLACEMENT_3D('',#618,#504,#505);
#411=AXIS2_PLACEMENT_3D('',#619,#506,#507);
#412=DIRECTION('',(0.,0.,1.));
#413=DIRECTION('',(1.,0.,0.));
#414=DIRECTION('',(1.,0.,0.));
#415=DIRECTION('',(0.,0.,-1.));
#416=DIRECTION('',(-1.,0.,0.));
#417=DIRECTION('',(0.,0.,-1.));
#418=DIRECTION('',(1.,0.,0.));
#419=DIRECTION('',(0.,1.,0.));
#420=DIRECTION('',(0.,0.,1.));
#421=DIRECTION('',(0.,0.,1.));
#422=DIRECTION('',(1.,0.,0.));
#423=DIRECTION('',(0.,0.,-1.));
#424=DIRECTION('',(0.,0.,-1.));
#425=DIRECTION('',(1.,0.,0.));
#426=DIRECTION('',(0.,0.,1.));
#427=DIRECTION('',(1.,0.,0.));
#428=DIRECTION('',(-1.,0.,0.));
#429=DIRECTION('',(0.,0.,-1.));
#430=DIRECTION('',(1.,0.,0.));
#431=DIRECTION('',(-1.,0.,0.));
#432=DIRECTION('',(0.,-1.,0.));
#433=DIRECTION('',(0.,0.,-1.));
#434=DIRECTION('',(-1.,0.,0.));
#435=DIRECTION('',(0.,0.,-1.));
#436=DIRECTION('',(1.,0.,0.));
#437=DIRECTION('',(0.,0.,1.));
#438=DIRECTION('',(1.,0.,0.));
#439=DIRECTION('',(0.707106781186547,0.,0.707106781186548));
#440=DIRECTION('',(0.,-1.,0.));
#441=DIRECTION('',(0.,0.,-1.));
#442=DIRECTION('',(-1.,0.,0.));
#443=DIRECTION('',(0.,0.,1.));
#444=DIRECTION('',(1.,0.,0.));
#445=DIRECTION('',(-0.707106781186547,0.,-0.707106781186548));
#446=DIRECTION('',(-1.,0.,0.));
#447=DIRECTION('',(0.,0.,1.));
#448=DIRECTION('',(0.,1.,0.));
#449=DIRECTION('',(0.,0.,1.));
#450=DIRECTION('',(0.,0.,1.));
#451=DIRECTION('',(1.,0.,0.));
#452=DIRECTION('',(0.,0.,-1.));
#453=DIRECTION('',(1.,0.,0.));
#454=DIRECTION('',(0.,1.,0.));
#455=DIRECTION('',(0.,0.,-1.));
#456=DIRECTION('',(1.,0.,0.));
#457=DIRECTION('',(0.,0.,1.));
#458=DIRECTION('',(1.,0.,0.));
#459=DIRECTION('',(0.,0.,1.));
#460=DIRECTION('',(1.,0.,0.));
#461=DIRECTION('',(0.,1.,0.));
#462=DIRECTION('',(1.,0.,0.));
#463=DIRECTION('',(0.,0.,-1.));
#464=DIRECTION('',(0.,1.,0.));
#465=DIRECTION('',(0.,0.,1.));
#466=DIRECTION('',(1.,0.,0.));
#467=DIRECTION('',(0.,-1.,0.));
#468=DIRECTION('',(0.707106781186548,0.,-0.707106781186547));
#469=DIRECTION('',(-0.707106781186547,0.,-0.707106781186548));
#470=DIRECTION('',(0.,0.,-1.));
#471=DIRECTION('',(1.,0.,0.));
#472=DIRECTION('',(0.,0.,-1.));
#473=DIRECTION('',(1.,0.,0.));
#474=DIRECTION('',(0.,0.,1.));
#475=DIRECTION('',(1.,0.,0.));
#476=DIRECTION('',(0.,0.,1.));
#477=DIRECTION('',(1.,0.,0.));
#478=DIRECTION('',(0.,0.,-1.));
#479=DIRECTION('',(1.,0.,0.));
#480=DIRECTION('',(0.,0.,1.));
#481=DIRECTION('',(1.,0.,0.));
#482=DIRECTION('',(0.,0.,-1.));
#483=DIRECTION('',(0.,0.,1.));
#484=DIRECTION('',(1.,0.,0.));
#485=DIRECTION('',(0.,0.,1.));
#486=DIRECTION('',(1.,0.,0.));
#487=DIRECTION('',(0.,0.,-1.));
#488=DIRECTION('',(0.,0.,1.));
#489=DIRECTION('',(1.,0.,0.));
#490=DIRECTION('',(0.,0.,1.));
#491=DIRECTION('',(1.,0.,0.));
#492=DIRECTION('',(0.,0.,-1.));
#493=DIRECTION('',(1.,0.,0.));
#494=DIRECTION('',(0.,0.,1.));
#495=DIRECTION('',(1.,0.,-3.87053582600597E-16));
#496=DIRECTION('',(0.,0.,1.));
#497=DIRECTION('',(1.,0.,0.));
#498=DIRECTION('',(8.8763443206159E-17,4.25086772284295E-16,0.999999999999998));
#499=DIRECTION('',(0.999999999979956,6.33163859237173E-6,-1.60161472112764E-16));
#500=DIRECTION('',(8.8763443206159E-17,4.25086772284295E-16,0.999999999999998));
#501=DIRECTION('',(0.999999999979956,6.33163859237173E-6,-8.87661347001921E-17));
#502=DIRECTION('',(8.8763443206159E-17,4.25086772284295E-16,0.999999999999998));
#503=DIRECTION('',(0.999999999979956,6.33163859237173E-6,7.21614732941487E-24));
#504=DIRECTION('',(8.8763443206159E-17,4.25086772284295E-16,0.999999999999998));
#505=DIRECTION('',(0.999999999979956,6.33163859237173E-6,-8.89045781438114E-17));
#506=DIRECTION('',(8.8763443206159E-17,4.25086772284295E-16,0.999999999999998));
#507=DIRECTION('',(0.999999999979956,6.33163859237173E-6,-8.87661347001921E-17));
#508=CARTESIAN_POINT('',(0.,0.,0.));
#509=CARTESIAN_POINT('',(3.51795489619995,-2.65777274505252,-2.38));
#510=CARTESIAN_POINT('',(3.70445129013823,-2.65777274505252,-2.08945968198838));
#511=CARTESIAN_POINT('',(3.83418449795256,-2.65777274505252,-1.7641466930598));
#512=CARTESIAN_POINT('',(3.95227957497647,-2.65777274505252,-1.43972700480861));
#513=CARTESIAN_POINT('',(4.08848853715923,-2.65777274505252,-1.06554655493767));
#514=CARTESIAN_POINT('',(4.20364035569371,-2.65777274505252,-0.683681911382657));
#515=CARTESIAN_POINT('',(4.31018650213869,-2.65777274505252,-0.3));
#516=CARTESIAN_POINT('',(3.51795489619995,-2.65777274505252,-2.38));
#517=CARTESIAN_POINT('',(4.31018650213869,-2.65777274505252,-0.3));
#518=CARTESIAN_POINT('',(17.0000000000004,-2.65777274505252,-2.38));
#519=CARTESIAN_POINT('',(3.,-2.65777274505109,-2.38));
#520=CARTESIAN_POINT('',(3.,-2.65777274505252,-35.));
#521=CARTESIAN_POINT('',(3.,-2.65777274505109,-25.));
#522=CARTESIAN_POINT('',(17.0000000000004,-2.65777274505252,-25.));
#523=CARTESIAN_POINT('',(17.0000000000004,-2.65777274505252,-25.));
#524=CARTESIAN_POINT('',(17.0000000000004,-2.65777274505098,-35.));
#525=CARTESIAN_POINT('',(17.0000000000004,-2.65777274505252,-0.3));
#526=CARTESIAN_POINT('',(17.0000000000004,-2.65777274505252,-0.3));
#527=CARTESIAN_POINT('',(17.0000000000004,-2.65777274505252,-35.));
#528=CARTESIAN_POINT('',(3.,-4.33680868994202E-16,-2.38));
#529=CARTESIAN_POINT('',(3.,2.65777274505109,-2.38));
#530=CARTESIAN_POINT('',(3.,2.65777274505109,-35.));
#531=CARTESIAN_POINT('',(3.,2.65777274505109,-25.));
#532=CARTESIAN_POINT('',(3.,-4.33680868994202E-16,-25.));
#533=CARTESIAN_POINT('',(3.,-4.33680868994202E-16,-35.));
#534=CARTESIAN_POINT('',(4.31018650214159,2.65777274505109,-0.3));
#535=CARTESIAN_POINT('',(4.22607956477044,2.65777274505109,-0.602876373927248));
#536=CARTESIAN_POINT('',(4.13627550612178,2.65777274505109,-0.904371875666582));
#537=CARTESIAN_POINT('',(4.03556986942412,2.65777274505109,-1.20214099685713));
#538=CARTESIAN_POINT('',(3.96716532115586,2.65777274505109,-1.40440139549226));
#539=CARTESIAN_POINT('',(3.8937539168803,2.65777274505109,-1.60520476704116));
#540=CARTESIAN_POINT('',(3.81095326157366,2.65777274505109,-1.80201051533276));
#541=CARTESIAN_POINT('',(3.75418740675691,2.65777274505109,-1.93693513027995));
#542=CARTESIAN_POINT('',(3.69298061743943,2.65777274505109,-2.07027956049938));
#543=CARTESIAN_POINT('',(3.62368322159293,2.65777274505109,-2.19921708382218));
#544=CARTESIAN_POINT('',(3.59063456515575,2.65777274505109,-2.260708743907));
#545=CARTESIAN_POINT('',(3.55566518888197,2.65777274505109,-2.3212516231826));
#546=CARTESIAN_POINT('',(3.51795489620728,2.65777274505109,-2.38));
#547=CARTESIAN_POINT('',(4.31018650214159,2.65777274505109,-0.3));
#548=CARTESIAN_POINT('',(3.51795489620728,2.65777274505109,-2.38));
#549=CARTESIAN_POINT('',(3.,2.65777274505109,-0.3));
#550=CARTESIAN_POINT('',(17.,2.65777274505109,-0.3));
#551=CARTESIAN_POINT('',(17.,2.65777274505109,-35.));
#552=CARTESIAN_POINT('',(17.,2.65777274505109,-25.));
#553=CARTESIAN_POINT('',(3.,2.65777274505109,-25.));
#554=CARTESIAN_POINT('',(3.,2.65777274505109,-2.38));
#555=CARTESIAN_POINT('',(3.,2.65777274505109,-35.));
#556=CARTESIAN_POINT('',(0.,-12.5,-0.3));
#557=CARTESIAN_POINT('',(33.7,-12.5,-0.3));
#558=CARTESIAN_POINT('',(33.3112827444929,-12.5,-0.3));
#559=CARTESIAN_POINT('',(33.3112827444929,-12.5,-35.));
#560=CARTESIAN_POINT('',(33.3112827444929,-12.5,-25.));
#561=CARTESIAN_POINT('',(0.,-12.5,-25.));
#562=CARTESIAN_POINT('',(150.,-12.5,-25.));
#563=CARTESIAN_POINT('',(150.,-12.5,-25.));
#564=CARTESIAN_POINT('',(150.,-12.5,0.));
#565=CARTESIAN_POINT('',(0.,-12.5,0.));
#566=CARTESIAN_POINT('',(34.,-12.5,0.));
#567=CARTESIAN_POINT('',(4.5,-12.5,-29.5));
#568=CARTESIAN_POINT('',(0.,-12.5,-25.));
#569=CARTESIAN_POINT('',(150.,12.5,-25.));
#570=CARTESIAN_POINT('',(150.,12.5,-25.));
#571=CARTESIAN_POINT('',(33.3112827444929,12.5,-25.));
#572=CARTESIAN_POINT('',(33.3112827444929,12.5,-35.));
#573=CARTESIAN_POINT('',(33.3112827444929,12.5,-0.3));
#574=CARTESIAN_POINT('',(150.,12.5,-0.3));
#575=CARTESIAN_POINT('',(33.7,12.5,-0.3));
#576=CARTESIAN_POINT('',(79.5,12.5,45.5));
#577=CARTESIAN_POINT('',(34.,12.5,0.));
#578=CARTESIAN_POINT('',(150.,12.5,0.));
#579=CARTESIAN_POINT('',(150.,12.5,0.));
#580=CARTESIAN_POINT('',(150.,12.5,-25.));
#581=CARTESIAN_POINT('',(150.,12.5,-25.));
#582=CARTESIAN_POINT('',(17.,15.1577727450511,-25.));
#583=CARTESIAN_POINT('',(27.7147772962103,8.7201064370931,-25.));
#584=CARTESIAN_POINT('',(34.5722347657848,4.6,-25.));
#585=CARTESIAN_POINT('',(150.,-12.5,-25.));
#586=CARTESIAN_POINT('',(34.5722347657848,-4.6,-25.));
#587=CARTESIAN_POINT('',(27.7147772962103,-8.72010643709305,-25.));
#588=CARTESIAN_POINT('',(17.,-15.157772745051,-25.));
#589=CARTESIAN_POINT('',(0.,0.,-25.));
#590=CARTESIAN_POINT('',(150.,-12.5,0.));
#591=CARTESIAN_POINT('',(150.,-12.5,-25.));
#592=CARTESIAN_POINT('',(34.,-13.5,0.));
#593=CARTESIAN_POINT('',(0.,0.,0.));
#594=CARTESIAN_POINT('',(33.7,0.,-0.3));
#595=CARTESIAN_POINT('',(34.,-13.5,0.));
#596=CARTESIAN_POINT('',(3.,-4.33680868994135E-16,-0.3));
#597=CARTESIAN_POINT('',(17.,-15.157772745051,-0.3));
#598=CARTESIAN_POINT('',(27.7147772962103,-8.72010643709305,-0.3));
#599=CARTESIAN_POINT('',(34.5722347657848,-4.6,-0.3));
#600=CARTESIAN_POINT('',(34.5722347657848,4.6,-0.3));
#601=CARTESIAN_POINT('',(27.7147772962103,8.7201064370931,-0.3));
#602=CARTESIAN_POINT('',(17.,15.1577727450511,-0.3));
#603=CARTESIAN_POINT('',(0.,0.,-0.3));
#604=CARTESIAN_POINT('',(27.7147772962103,-8.72010643709307,-35.));
#605=CARTESIAN_POINT('',(34.5722347657848,-4.6,-35.));
#606=CARTESIAN_POINT('',(17.,-15.157772745051,-35.));
#607=CARTESIAN_POINT('',(27.7147772962103,8.72010643709311,-35.));
#608=CARTESIAN_POINT('',(17.,15.1577727450511,-35.));
#609=CARTESIAN_POINT('',(34.5722347657848,4.6,-35.));
#610=CARTESIAN_POINT('',(3.,-4.33680868994135E-16,-2.38));
#611=CARTESIAN_POINT('',(3.,-4.33680868994135E-16,-2.38));
#612=CARTESIAN_POINT('',(3.,-4.33680868994135E-16,-2.38));
#613=CARTESIAN_POINT('',(3.00000103310402,2.09017943708298E-6,-2.38));
#614=CARTESIAN_POINT('',(5.70777377810083,1.92348178490208E-5,-2.38));
#615=CARTESIAN_POINT('',(3.00000103310402,2.09017943795034E-6,-9.0767992324112E-22));
#616=CARTESIAN_POINT('',(6.00000103304389,2.10850952150655E-5,-2.66299311780499E-16));
#617=CARTESIAN_POINT('',(3.00000103310402,2.09017943795034E-6,-9.0767992324112E-22));
#618=CARTESIAN_POINT('',(3.00000103310402,2.09017943708298E-6,-2.38));
#619=CARTESIAN_POINT('',(3.00000103310402,2.09017943795034E-6,-9.0767992324112E-22));
#620=(
GEOMETRIC_REPRESENTATION_CONTEXT(3)
GLOBAL_UNCERTAINTY_ASSIGNED_CONTEXT((#621))
GLOBAL_UNIT_ASSIGNED_CONTEXT((#627,#623,#622))
REPRESENTATION_CONTEXT('SRDCN-2525-M06','TOP_LEVEL_ASSEMBLY_PART')
);
#621=UNCERTAINTY_MEASURE_WITH_UNIT(LENGTH_MEASURE(0.0508),#627,
'DISTANCE_ACCURACY_VALUE','Maximum Tolerance applied to model');
#622=(
NAMED_UNIT(*)
SI_UNIT($,.STERADIAN.)
SOLID_ANGLE_UNIT()
);
#623=(
CONVERSION_BASED_UNIT('DEGREE',#625)
NAMED_UNIT(#624)
PLANE_ANGLE_UNIT()
);
#624=DIMENSIONAL_EXPONENTS(0.,0.,0.,0.,0.,0.,0.);
#625=PLANE_ANGLE_MEASURE_WITH_UNIT(PLANE_ANGLE_MEASURE(0.0174532925),#626);
#626=(
NAMED_UNIT(*)
PLANE_ANGLE_UNIT()
SI_UNIT($,.RADIAN.)
);
#627=(
LENGTH_UNIT()
NAMED_UNIT(*)
SI_UNIT(.MILLI.,.METRE.)
);
ENDSEC;
END-ISO-10303-21;
