ISO-10303-21;
HEADER;
/* Generated by software containing ST-Developer
 * from STEP Tools, Inc. (www.steptools.com) 
 */
/* OPTION: using custom schema-name function */

FILE_DESCRIPTION(
/* description */ (''),
/* implementation_level */ '2;1');

FILE_NAME(
/* name */ 'SRHCL-2525-K16.stp',
/* time_stamp */ '2023-10-02T23:49:30+03:00',
/* author */ (''),
/* organization */ (''),
/* preprocessor_version */ 'ST-DEVELOPER v19.4',
/* originating_system */ 'SIEMENS PLM Software NX2306.3001',
/* authorisation */ '');

FILE_SCHEMA (('AUTOMOTIVE_DESIGN { 1 0 10303 214 3 1 1 1 }'));
ENDSEC;

DATA;
#10=SHAPE_REPRESENTATION_RELATIONSHIP('None',
'relationship between model1-None and model1-None',#22,#11);
#11=ADVANCED_BREP_SHAPE_REPRESENTATION('model1-None',(#42,#43),#605);
#12=SHAPE_DEFINITION_REPRESENTATION(#13,#22);
#13=PRODUCT_DEFINITION_SHAPE('','',#14);
#14=PRODUCT_DEFINITION(' ','',#16,#15);
#15=PRODUCT_DEFINITION_CONTEXT('part definition',#21,'design');
#16=PRODUCT_DEFINITION_FORMATION_WITH_SPECIFIED_SOURCE(' ',' ',#18,
 .NOT_KNOWN.);
#17=PRODUCT_RELATED_PRODUCT_CATEGORY('part','',(#18));
#18=PRODUCT('model1','model1',' ',(#19));
#19=PRODUCT_CONTEXT(' ',#21,'mechanical');
#20=APPLICATION_PROTOCOL_DEFINITION('international standard',
'automotive_design',2010,#21);
#21=APPLICATION_CONTEXT(
'core data for automotive mechanical design processes');
#22=SHAPE_REPRESENTATION('model1-None',(#332),#605);
#23=DRAUGHTING_PRE_DEFINED_COLOUR('yellow');
#24=FACE_BOUND('',#125,.T.);
#25=FACE_BOUND('',#126,.T.);
#26=PRESENTATION_LAYER_ASSIGNMENT('1','Layer 1',(#42,#43));
#27=STYLED_ITEM('',(#29),#42);
#28=STYLED_ITEM('',(#30),#43);
#29=PRESENTATION_STYLE_ASSIGNMENT((#31));
#30=PRESENTATION_STYLE_ASSIGNMENT((#32));
#31=SURFACE_STYLE_USAGE(.BOTH.,#33);
#32=SURFACE_STYLE_USAGE(.BOTH.,#34);
#33=SURFACE_SIDE_STYLE('',(#35));
#34=SURFACE_SIDE_STYLE('',(#36));
#35=SURFACE_STYLE_FILL_AREA(#37);
#36=SURFACE_STYLE_FILL_AREA(#38);
#37=FILL_AREA_STYLE('',(#39));
#38=FILL_AREA_STYLE('',(#40));
#39=FILL_AREA_STYLE_COLOUR('',#41);
#40=FILL_AREA_STYLE_COLOUR('',#23);
#41=COLOUR_RGB('light gray',0.8,0.8,0.8);
#42=MANIFOLD_SOLID_BREP('',#44);
#43=MANIFOLD_SOLID_BREP('',#45);
#44=CLOSED_SHELL('',(#61,#62,#63,#64,#65,#66,#67,#68,#69,#70,#71,#72,#73,
#74,#75,#76));
#45=CLOSED_SHELL('',(#77,#78,#79));
#46=SURFACE_OF_LINEAR_EXTRUSION('',#176,#168);
#47=SURFACE_OF_LINEAR_EXTRUSION('',#177,#169);
#48=CONICAL_SURFACE('',#348,7.22031803826656,7.);
#49=CONICAL_SURFACE('',#358,7.02031803826656,7.);
#50=CONICAL_SURFACE('',#361,8.,7.);
#51=CYLINDRICAL_SURFACE('',#341,40.);
#52=CYLINDRICAL_SURFACE('',#356,12.5);
#53=CYLINDRICAL_SURFACE('',#357,42.0532925680276);
#54=CIRCLE('',#340,40.);
#55=CIRCLE('',#345,7.98772154390971);
#56=CIRCLE('',#347,7.22031803826656);
#57=CIRCLE('',#349,40.);
#58=CIRCLE('',#350,7.02031803826656);
#59=CIRCLE('',#359,7.22031803826656);
#60=CIRCLE('',#360,8.);
#61=ADVANCED_FACE('',(#91),#80,.F.);
#62=ADVANCED_FACE('',(#92),#81,.T.);
#63=ADVANCED_FACE('',(#93),#82,.T.);
#64=ADVANCED_FACE('',(#94),#51,.F.);
#65=ADVANCED_FACE('',(#95),#83,.F.);
#66=ADVANCED_FACE('',(#96),#84,.F.);
#67=ADVANCED_FACE('',(#97),#85,.T.);
#68=ADVANCED_FACE('',(#98),#86,.T.);
#69=ADVANCED_FACE('',(#99),#48,.F.);
#70=ADVANCED_FACE('',(#100),#87,.T.);
#71=ADVANCED_FACE('',(#101),#88,.F.);
#72=ADVANCED_FACE('',(#102),#46,.T.);
#73=ADVANCED_FACE('',(#103),#47,.T.);
#74=ADVANCED_FACE('',(#104),#52,.F.);
#75=ADVANCED_FACE('',(#105),#53,.F.);
#76=ADVANCED_FACE('',(#106),#49,.T.);
#77=ADVANCED_FACE('',(#24,#25),#50,.T.);
#78=ADVANCED_FACE('',(#107),#89,.T.);
#79=ADVANCED_FACE('',(#108),#90,.F.);
#80=PLANE('',#336);
#81=PLANE('',#338);
#82=PLANE('',#339);
#83=PLANE('',#342);
#84=PLANE('',#343);
#85=PLANE('',#344);
#86=PLANE('',#346);
#87=PLANE('',#351);
#88=PLANE('',#353);
#89=PLANE('',#362);
#90=PLANE('',#363);
#91=FACE_OUTER_BOUND('',#109,.T.);
#92=FACE_OUTER_BOUND('',#110,.T.);
#93=FACE_OUTER_BOUND('',#111,.T.);
#94=FACE_OUTER_BOUND('',#112,.T.);
#95=FACE_OUTER_BOUND('',#113,.T.);
#96=FACE_OUTER_BOUND('',#114,.T.);
#97=FACE_OUTER_BOUND('',#115,.T.);
#98=FACE_OUTER_BOUND('',#116,.T.);
#99=FACE_OUTER_BOUND('',#117,.T.);
#100=FACE_OUTER_BOUND('',#118,.T.);
#101=FACE_OUTER_BOUND('',#119,.T.);
#102=FACE_OUTER_BOUND('',#120,.T.);
#103=FACE_OUTER_BOUND('',#121,.T.);
#104=FACE_OUTER_BOUND('',#122,.T.);
#105=FACE_OUTER_BOUND('',#123,.T.);
#106=FACE_OUTER_BOUND('',#124,.T.);
#107=FACE_OUTER_BOUND('',#127,.T.);
#108=FACE_OUTER_BOUND('',#128,.T.);
#109=EDGE_LOOP('',(#178,#179,#180,#181,#182,#183,#184,#185));
#110=EDGE_LOOP('',(#186,#187,#188,#189,#190));
#111=EDGE_LOOP('',(#191,#192,#193,#194,#195,#196));
#112=EDGE_LOOP('',(#197,#198,#199,#200,#201));
#113=EDGE_LOOP('',(#202,#203,#204,#205));
#114=EDGE_LOOP('',(#206,#207,#208,#209));
#115=EDGE_LOOP('',(#210,#211,#212,#213));
#116=EDGE_LOOP('',(#214,#215,#216,#217,#218,#219));
#117=EDGE_LOOP('',(#220,#221,#222,#223));
#118=EDGE_LOOP('',(#224,#225,#226,#227,#228));
#119=EDGE_LOOP('',(#229,#230,#231,#232,#233));
#120=EDGE_LOOP('',(#234,#235,#236,#237));
#121=EDGE_LOOP('',(#238,#239,#240,#241));
#122=EDGE_LOOP('',(#242,#243,#244,#245));
#123=EDGE_LOOP('',(#246,#247,#248,#249));
#124=EDGE_LOOP('',(#250,#251,#252,#253));
#125=EDGE_LOOP('',(#254));
#126=EDGE_LOOP('',(#255));
#127=EDGE_LOOP('',(#256));
#128=EDGE_LOOP('',(#257));
#129=LINE('',#468,#149);
#130=LINE('',#470,#150);
#131=LINE('',#472,#151);
#132=LINE('',#478,#152);
#133=LINE('',#480,#153);
#134=LINE('',#482,#154);
#135=LINE('',#484,#155);
#136=LINE('',#486,#156);
#137=LINE('',#488,#157);
#138=LINE('',#490,#158);
#139=LINE('',#492,#159);
#140=LINE('',#494,#160);
#141=LINE('',#521,#161);
#142=LINE('',#530,#162);
#143=LINE('',#532,#163);
#144=LINE('',#534,#164);
#145=LINE('',#576,#165);
#146=LINE('',#580,#166);
#147=LINE('',#581,#167);
#148=LINE('',#594,#170);
#149=VECTOR('',#370,1.);
#150=VECTOR('',#371,1.);
#151=VECTOR('',#372,1.);
#152=VECTOR('',#379,1.);
#153=VECTOR('',#380,1.);
#154=VECTOR('',#381,1.);
#155=VECTOR('',#382,1.);
#156=VECTOR('',#385,1.);
#157=VECTOR('',#386,1.);
#158=VECTOR('',#387,1.);
#159=VECTOR('',#388,1.);
#160=VECTOR('',#389,1.);
#161=VECTOR('',#396,1.);
#162=VECTOR('',#397,1.);
#163=VECTOR('',#400,1.);
#164=VECTOR('',#403,1.);
#165=VECTOR('',#418,1.);
#166=VECTOR('',#425,1.);
#167=VECTOR('',#426,1.);
#168=VECTOR('',#429,1.);
#169=VECTOR('',#432,1.);
#170=VECTOR('',#433,1.);
#171=ELLIPSE('',#333,46.67423665041,42.0532925680276);
#172=ELLIPSE('',#334,13.87353813465,12.5);
#173=ELLIPSE('',#335,6.42374200979694,6.15513553241078);
#174=ELLIPSE('',#337,36.5475550020386,12.5);
#175=ELLIPSE('',#352,24.6675345973812,2.70752719331063);
#176=ELLIPSE('',#354,40.,37.5877048314363);
#177=ELLIPSE('',#355,7.02031803826656,6.59694105612929);
#178=ORIENTED_EDGE('',*,*,#284,.T.);
#179=ORIENTED_EDGE('',*,*,#285,.T.);
#180=ORIENTED_EDGE('',*,*,#286,.T.);
#181=ORIENTED_EDGE('',*,*,#287,.T.);
#182=ORIENTED_EDGE('',*,*,#288,.F.);
#183=ORIENTED_EDGE('',*,*,#289,.F.);
#184=ORIENTED_EDGE('',*,*,#290,.T.);
#185=ORIENTED_EDGE('',*,*,#291,.T.);
#186=ORIENTED_EDGE('',*,*,#292,.F.);
#187=ORIENTED_EDGE('',*,*,#293,.T.);
#188=ORIENTED_EDGE('',*,*,#294,.F.);
#189=ORIENTED_EDGE('',*,*,#295,.T.);
#190=ORIENTED_EDGE('',*,*,#296,.T.);
#191=ORIENTED_EDGE('',*,*,#297,.F.);
#192=ORIENTED_EDGE('',*,*,#289,.T.);
#193=ORIENTED_EDGE('',*,*,#298,.T.);
#194=ORIENTED_EDGE('',*,*,#299,.F.);
#195=ORIENTED_EDGE('',*,*,#300,.F.);
#196=ORIENTED_EDGE('',*,*,#301,.T.);
#197=ORIENTED_EDGE('',*,*,#302,.T.);
#198=ORIENTED_EDGE('',*,*,#303,.F.);
#199=ORIENTED_EDGE('',*,*,#304,.F.);
#200=ORIENTED_EDGE('',*,*,#293,.F.);
#201=ORIENTED_EDGE('',*,*,#305,.T.);
#202=ORIENTED_EDGE('',*,*,#301,.F.);
#203=ORIENTED_EDGE('',*,*,#306,.F.);
#204=ORIENTED_EDGE('',*,*,#307,.F.);
#205=ORIENTED_EDGE('',*,*,#308,.T.);
#206=ORIENTED_EDGE('',*,*,#296,.F.);
#207=ORIENTED_EDGE('',*,*,#309,.F.);
#208=ORIENTED_EDGE('',*,*,#298,.F.);
#209=ORIENTED_EDGE('',*,*,#288,.T.);
#210=ORIENTED_EDGE('',*,*,#310,.F.);
#211=ORIENTED_EDGE('',*,*,#299,.T.);
#212=ORIENTED_EDGE('',*,*,#309,.T.);
#213=ORIENTED_EDGE('',*,*,#295,.F.);
#214=ORIENTED_EDGE('',*,*,#306,.T.);
#215=ORIENTED_EDGE('',*,*,#300,.T.);
#216=ORIENTED_EDGE('',*,*,#310,.T.);
#217=ORIENTED_EDGE('',*,*,#294,.T.);
#218=ORIENTED_EDGE('',*,*,#304,.T.);
#219=ORIENTED_EDGE('',*,*,#311,.T.);
#220=ORIENTED_EDGE('',*,*,#303,.T.);
#221=ORIENTED_EDGE('',*,*,#312,.T.);
#222=ORIENTED_EDGE('',*,*,#307,.T.);
#223=ORIENTED_EDGE('',*,*,#311,.F.);
#224=ORIENTED_EDGE('',*,*,#313,.T.);
#225=ORIENTED_EDGE('',*,*,#314,.F.);
#226=ORIENTED_EDGE('',*,*,#315,.T.);
#227=ORIENTED_EDGE('',*,*,#316,.T.);
#228=ORIENTED_EDGE('',*,*,#312,.F.);
#229=ORIENTED_EDGE('',*,*,#290,.F.);
#230=ORIENTED_EDGE('',*,*,#297,.T.);
#231=ORIENTED_EDGE('',*,*,#308,.F.);
#232=ORIENTED_EDGE('',*,*,#316,.F.);
#233=ORIENTED_EDGE('',*,*,#317,.T.);
#234=ORIENTED_EDGE('',*,*,#313,.F.);
#235=ORIENTED_EDGE('',*,*,#318,.F.);
#236=ORIENTED_EDGE('',*,*,#285,.F.);
#237=ORIENTED_EDGE('',*,*,#319,.T.);
#238=ORIENTED_EDGE('',*,*,#314,.T.);
#239=ORIENTED_EDGE('',*,*,#319,.F.);
#240=ORIENTED_EDGE('',*,*,#284,.F.);
#241=ORIENTED_EDGE('',*,*,#320,.T.);
#242=ORIENTED_EDGE('',*,*,#321,.T.);
#243=ORIENTED_EDGE('',*,*,#305,.F.);
#244=ORIENTED_EDGE('',*,*,#292,.T.);
#245=ORIENTED_EDGE('',*,*,#287,.F.);
#246=ORIENTED_EDGE('',*,*,#318,.T.);
#247=ORIENTED_EDGE('',*,*,#302,.F.);
#248=ORIENTED_EDGE('',*,*,#321,.F.);
#249=ORIENTED_EDGE('',*,*,#286,.F.);
#250=ORIENTED_EDGE('',*,*,#291,.F.);
#251=ORIENTED_EDGE('',*,*,#317,.F.);
#252=ORIENTED_EDGE('',*,*,#315,.F.);
#253=ORIENTED_EDGE('',*,*,#320,.F.);
#254=ORIENTED_EDGE('',*,*,#322,.F.);
#255=ORIENTED_EDGE('',*,*,#323,.T.);
#256=ORIENTED_EDGE('',*,*,#322,.T.);
#257=ORIENTED_EDGE('',*,*,#323,.F.);
#258=VERTEX_POINT('',#457);
#259=VERTEX_POINT('',#458);
#260=VERTEX_POINT('',#463);
#261=VERTEX_POINT('',#465);
#262=VERTEX_POINT('',#467);
#263=VERTEX_POINT('',#469);
#264=VERTEX_POINT('',#471);
#265=VERTEX_POINT('',#473);
#266=VERTEX_POINT('',#477);
#267=VERTEX_POINT('',#479);
#268=VERTEX_POINT('',#481);
#269=VERTEX_POINT('',#483);
#270=VERTEX_POINT('',#487);
#271=VERTEX_POINT('',#489);
#272=VERTEX_POINT('',#491);
#273=VERTEX_POINT('',#493);
#274=VERTEX_POINT('',#502);
#275=VERTEX_POINT('',#503);
#276=VERTEX_POINT('',#510);
#277=VERTEX_POINT('',#522);
#278=VERTEX_POINT('',#529);
#279=VERTEX_POINT('',#541);
#280=VERTEX_POINT('',#573);
#281=VERTEX_POINT('',#575);
#282=VERTEX_POINT('',#599);
#283=VERTEX_POINT('',#601);
#284=EDGE_CURVE('',#258,#259,#324,.T.);
#285=EDGE_CURVE('',#259,#260,#325,.T.);
#286=EDGE_CURVE('',#260,#261,#171,.T.);
#287=EDGE_CURVE('',#261,#262,#172,.T.);
#288=EDGE_CURVE('',#263,#262,#129,.T.);
#289=EDGE_CURVE('',#264,#263,#130,.T.);
#290=EDGE_CURVE('',#264,#265,#131,.T.);
#291=EDGE_CURVE('',#265,#258,#173,.T.);
#292=EDGE_CURVE('',#266,#262,#174,.T.);
#293=EDGE_CURVE('',#266,#267,#132,.T.);
#294=EDGE_CURVE('',#268,#267,#133,.T.);
#295=EDGE_CURVE('',#268,#269,#134,.T.);
#296=EDGE_CURVE('',#269,#262,#135,.T.);
#297=EDGE_CURVE('',#264,#270,#136,.T.);
#298=EDGE_CURVE('',#263,#271,#137,.T.);
#299=EDGE_CURVE('',#272,#271,#138,.T.);
#300=EDGE_CURVE('',#273,#272,#139,.T.);
#301=EDGE_CURVE('',#273,#270,#140,.T.);
#302=EDGE_CURVE('',#274,#275,#326,.T.);
#303=EDGE_CURVE('',#276,#275,#327,.T.);
#304=EDGE_CURVE('',#267,#276,#54,.T.);
#305=EDGE_CURVE('',#266,#274,#328,.T.);
#306=EDGE_CURVE('',#277,#273,#141,.T.);
#307=EDGE_CURVE('',#278,#277,#329,.T.);
#308=EDGE_CURVE('',#278,#270,#142,.T.);
#309=EDGE_CURVE('',#271,#269,#143,.T.);
#310=EDGE_CURVE('',#272,#268,#144,.T.);
#311=EDGE_CURVE('',#276,#277,#55,.T.);
#312=EDGE_CURVE('',#275,#278,#56,.T.);
#313=EDGE_CURVE('',#275,#279,#57,.T.);
#314=EDGE_CURVE('',#280,#279,#330,.T.);
#315=EDGE_CURVE('',#280,#281,#58,.T.);
#316=EDGE_CURVE('',#281,#278,#145,.T.);
#317=EDGE_CURVE('',#281,#265,#175,.T.);
#318=EDGE_CURVE('',#260,#275,#146,.T.);
#319=EDGE_CURVE('',#259,#279,#147,.T.);
#320=EDGE_CURVE('',#258,#280,#331,.T.);
#321=EDGE_CURVE('',#261,#274,#148,.T.);
#322=EDGE_CURVE('',#282,#282,#59,.T.);
#323=EDGE_CURVE('',#283,#283,#60,.T.);
#324=B_SPLINE_CURVE_WITH_KNOTS('',3,(#451,#452,#453,#454,#455,#456),
 .UNSPECIFIED.,.F.,.F.,(4,2,4),(0.,0.5,1.),.UNSPECIFIED.);
#325=B_SPLINE_CURVE_WITH_KNOTS('',3,(#459,#460,#461,#462),.UNSPECIFIED.,
 .F.,.F.,(4,4),(0.,1.),.UNSPECIFIED.);
#326=B_SPLINE_CURVE_WITH_KNOTS('',3,(#496,#497,#498,#499,#500,#501),
 .UNSPECIFIED.,.F.,.F.,(4,2,4),(0.,0.5,1.),.UNSPECIFIED.);
#327=B_SPLINE_CURVE_WITH_KNOTS('',3,(#504,#505,#506,#507,#508,#509),
 .UNSPECIFIED.,.F.,.F.,(4,2,4),(0.,0.5,1.),.UNSPECIFIED.);
#328=B_SPLINE_CURVE_WITH_KNOTS('',3,(#512,#513,#514,#515,#516,#517,#518,
#519),.UNSPECIFIED.,.F.,.F.,(4,2,2,4),(0.,0.5,0.75,1.),.UNSPECIFIED.);
#329=B_SPLINE_CURVE_WITH_KNOTS('',3,(#523,#524,#525,#526,#527,#528),
 .UNSPECIFIED.,.F.,.F.,(4,2,4),(0.,0.5,1.),.UNSPECIFIED.);
#330=B_SPLINE_CURVE_WITH_KNOTS('',3,(#542,#543,#544,#545,#546,#547,#548,
#549,#550,#551,#552,#553,#554,#555,#556,#557,#558,#559,#560,#561,#562,#563,
#564,#565,#566,#567,#568,#569,#570,#571,#572),.UNSPECIFIED.,.F.,.F.,(4,
3,3,3,3,3,3,3,3,3,4),(0.,0.0893641395099995,0.190545901786665,0.291727664063332,
0.392909426339999,0.494091188616666,0.595272950893333,0.696454713169999,
0.797636475446666,0.898818237723334,1.),.UNSPECIFIED.);
#331=B_SPLINE_CURVE_WITH_KNOTS('',3,(#583,#584,#585,#586,#587,#588,#589,
#590,#591,#592),.UNSPECIFIED.,.F.,.F.,(4,3,3,4),(0.,0.922136668080205,0.994131894452293,
1.),.UNSPECIFIED.);
#332=AXIS2_PLACEMENT_3D('',#450,#364,#365);
#333=AXIS2_PLACEMENT_3D('',#464,#366,#367);
#334=AXIS2_PLACEMENT_3D('',#466,#368,#369);
#335=AXIS2_PLACEMENT_3D('',#474,#373,#374);
#336=AXIS2_PLACEMENT_3D('',#475,#375,#376);
#337=AXIS2_PLACEMENT_3D('',#476,#377,#378);
#338=AXIS2_PLACEMENT_3D('',#485,#383,#384);
#339=AXIS2_PLACEMENT_3D('',#495,#390,#391);
#340=AXIS2_PLACEMENT_3D('',#511,#392,#393);
#341=AXIS2_PLACEMENT_3D('',#520,#394,#395);
#342=AXIS2_PLACEMENT_3D('',#531,#398,#399);
#343=AXIS2_PLACEMENT_3D('',#533,#401,#402);
#344=AXIS2_PLACEMENT_3D('',#535,#404,#405);
#345=AXIS2_PLACEMENT_3D('',#536,#406,#407);
#346=AXIS2_PLACEMENT_3D('',#537,#408,#409);
#347=AXIS2_PLACEMENT_3D('',#538,#410,#411);
#348=AXIS2_PLACEMENT_3D('',#539,#412,#413);
#349=AXIS2_PLACEMENT_3D('',#540,#414,#415);
#350=AXIS2_PLACEMENT_3D('',#574,#416,#417);
#351=AXIS2_PLACEMENT_3D('',#577,#419,#420);
#352=AXIS2_PLACEMENT_3D('',#578,#421,#422);
#353=AXIS2_PLACEMENT_3D('',#579,#423,#424);
#354=AXIS2_PLACEMENT_3D('',#582,#427,#428);
#355=AXIS2_PLACEMENT_3D('',#593,#430,#431);
#356=AXIS2_PLACEMENT_3D('',#595,#434,#435);
#357=AXIS2_PLACEMENT_3D('',#596,#436,#437);
#358=AXIS2_PLACEMENT_3D('',#597,#438,#439);
#359=AXIS2_PLACEMENT_3D('',#598,#440,#441);
#360=AXIS2_PLACEMENT_3D('',#600,#442,#443);
#361=AXIS2_PLACEMENT_3D('',#602,#444,#445);
#362=AXIS2_PLACEMENT_3D('',#603,#446,#447);
#363=AXIS2_PLACEMENT_3D('',#604,#448,#449);
#364=DIRECTION('',(0.,0.,1.));
#365=DIRECTION('',(1.,0.,0.));
#366=DIRECTION('',(0.284015344703922,0.,0.958819734868193));
#367=DIRECTION('',(-0.589857707592639,0.788377748246761,0.174723813096336));
#368=DIRECTION('',(0.284015344703922,0.,0.958819734868193));
#369=DIRECTION('',(-0.589857707592639,0.788377748246761,0.174723813096336));
#370=DIRECTION('',(0.,1.,0.));
#371=DIRECTION('',(0.958819734868193,0.,-0.284015344703922));
#372=DIRECTION('',(-0.918659829917056,0.286382834452365,0.272119438901001));
#373=DIRECTION('',(-0.284015344703922,0.,-0.958819734868192));
#374=DIRECTION('',(-0.958819734868193,0.,0.284015344703922));
#375=DIRECTION('',(0.284015344703922,0.,0.958819734868193));
#376=DIRECTION('',(0.958819734868193,0.,-0.284015344703922));
#377=DIRECTION('',(0.,1.,0.));
#378=DIRECTION('',(0.,0.,1.));
#379=DIRECTION('',(0.,0.,1.));
#380=DIRECTION('',(-1.,0.,0.));
#381=DIRECTION('',(0.,0.,-1.));
#382=DIRECTION('',(-1.,0.,0.));
#383=DIRECTION('',(0.,1.,0.));
#384=DIRECTION('',(0.,0.,-1.));
#385=DIRECTION('',(-0.435986328515601,0.,0.899953288425286));
#386=DIRECTION('',(1.,0.,0.));
#387=DIRECTION('',(0.,0.,-1.));
#388=DIRECTION('',(1.,0.,0.));
#389=DIRECTION('',(0.,0.,-1.));
#390=DIRECTION('',(0.,-1.,0.));
#391=DIRECTION('',(0.,0.,1.));
#392=DIRECTION('',(0.,0.,-1.));
#393=DIRECTION('',(1.,0.,0.));
#394=DIRECTION('',(0.,0.,1.));
#395=DIRECTION('',(1.,0.,0.));
#396=DIRECTION('',(0.939692620785908,-0.342020143325669,0.));
#397=DIRECTION('',(0.939692620785908,-0.342020143325669,3.30517459305916E-16));
#398=DIRECTION('',(0.342020143325669,0.939692620785908,0.));
#399=DIRECTION('',(0.939692620785908,-0.342020143325669,0.));
#400=DIRECTION('',(0.,1.,0.));
#401=DIRECTION('',(0.,0.,1.));
#402=DIRECTION('',(1.,0.,0.));
#403=DIRECTION('',(0.,1.,0.));
#404=DIRECTION('',(1.,0.,0.));
#405=DIRECTION('',(0.,0.,-1.));
#406=DIRECTION('',(0.,0.,-1.));
#407=DIRECTION('',(1.,0.,0.));
#408=DIRECTION('',(0.,0.,1.));
#409=DIRECTION('',(1.,0.,0.));
#410=DIRECTION('',(0.,0.,-1.));
#411=DIRECTION('',(1.,0.,0.));
#412=DIRECTION('',(0.,0.,1.));
#413=DIRECTION('',(1.,0.,1.73465837369867E-16));
#414=DIRECTION('',(0.,0.,-1.));
#415=DIRECTION('',(1.,0.,0.));
#416=DIRECTION('',(0.,0.,1.));
#417=DIRECTION('',(1.,0.,0.));
#418=DIRECTION('',(0.939692620785908,-0.342020143325669,0.));
#419=DIRECTION('',(0.,0.,1.));
#420=DIRECTION('',(1.,0.,0.));
#421=DIRECTION('',(-0.337419706756524,-0.927053025192549,-0.16346446088885));
#422=DIRECTION('',(-0.0559081383418579,-0.153606347657999,0.986549223316463));
#423=DIRECTION('',(0.337419706756524,0.92705302519255,0.16346446088885));
#424=DIRECTION('',(0.939692620785908,-0.342020143325669,0.));
#425=DIRECTION('',(0.,0.342020143325668,0.939692620785909));
#426=DIRECTION('',(0.,0.342020143325668,0.939692620785909));
#427=DIRECTION('',(0.,-0.342020143325668,-0.939692620785908));
#428=DIRECTION('',(-1.,0.,0.));
#429=DIRECTION('',(0.,0.342020143325668,0.939692620785909));
#430=DIRECTION('',(0.,0.342020143325668,0.939692620785908));
#431=DIRECTION('',(-1.,0.,0.));
#432=DIRECTION('',(0.,0.342020143325668,0.939692620785909));
#433=DIRECTION('',(0.,0.342020143325668,0.939692620785909));
#434=DIRECTION('',(0.,0.342020143325668,0.939692620785909));
#435=DIRECTION('',(0.,0.939692620785909,-0.342020143325669));
#436=DIRECTION('',(0.,0.342020143325668,0.939692620785909));
#437=DIRECTION('',(0.,0.939692620785909,-0.342020143325669));
#438=DIRECTION('',(0.,0.,1.));
#439=DIRECTION('',(1.,-1.3364085311177E-16,1.737331090453E-16));
#440=DIRECTION('',(0.,0.,-1.));
#441=DIRECTION('',(-1.,0.,0.));
#442=DIRECTION('',(0.,0.,-1.));
#443=DIRECTION('',(1.,0.,0.));
#444=DIRECTION('',(0.,0.,1.));
#445=DIRECTION('',(1.,-1.3263977521511E-16,-8.4246982226472E-17));
#446=DIRECTION('',(0.,0.,-1.));
#447=DIRECTION('',(-1.,0.,0.));
#448=DIRECTION('',(0.,0.,-1.));
#449=DIRECTION('',(-1.,0.,0.));
#450=CARTESIAN_POINT('',(0.,0.,0.));
#451=CARTESIAN_POINT('',(1.75747741223581,30.8081107971749,-11.4803935087589));
#452=CARTESIAN_POINT('',(2.59866902784079,32.3523680158049,-11.7295658171501));
#453=CARTESIAN_POINT('',(4.14482986830201,33.4689640027702,-12.1875595234766));
#454=CARTESIAN_POINT('',(7.52410934311263,34.2004652391182,-13.1885477071639));
#455=CARTESIAN_POINT('',(9.31411742453874,33.87688910319,-13.7187722569735));
#456=CARTESIAN_POINT('',(10.840348971152,33.0371105456029,-14.1708626375172));
#457=CARTESIAN_POINT('',(1.75747741223582,30.8081107971749,-11.4803935087589));
#458=CARTESIAN_POINT('',(10.840348971152,33.037110545603,-14.1708626375172));
#459=CARTESIAN_POINT('',(10.840348971152,33.037110545603,-14.1708626375172));
#460=CARTESIAN_POINT('',(11.3145392283792,32.7761967864032,-14.3113241908874));
#461=CARTESIAN_POINT('',(11.7931659267735,32.5238697383373,-14.4530998780009));
#462=CARTESIAN_POINT('',(12.2758078125884,32.2803956222333,-14.5960649178133));
#463=CARTESIAN_POINT('',(12.2758078125884,32.2803956222333,-14.5960649178133));
#464=CARTESIAN_POINT('',(26.9631676316524,72.6309264902148,-18.9466591015838));
#465=CARTESIAN_POINT('',(38.6290443140031,28.3774264021627,-22.4022492054595));
#466=CARTESIAN_POINT('',(35.1614571258301,41.5314202352452,-21.3751030853651));
#467=CARTESIAN_POINT('',(47.3989040223632,37.5,-25.));
#468=CARTESIAN_POINT('',(47.3989040223632,45.,-25.));
#469=CARTESIAN_POINT('',(47.3989040223631,12.5,-25.));
#470=CARTESIAN_POINT('',(0.979681961733444,12.5,-11.25));
#471=CARTESIAN_POINT('',(42.5719174269439,12.5,-23.5701814304358));
#472=CARTESIAN_POINT('',(-4.15949872287914,27.0680424670008,-9.7277053281693));
#473=CARTESIAN_POINT('',(4.26772503802603,24.4409413914805,-12.2239627312145));
#474=CARTESIAN_POINT('',(7.77598677593885,29.5,-13.2631572018434));
#475=CARTESIAN_POINT('',(0.979681961733444,45.,-11.25));
#476=CARTESIAN_POINT('',(35.1614571258301,37.5,-32.4513391500337));
#477=CARTESIAN_POINT('',(46.3888571330605,37.5,-16.3849105073485));
#478=CARTESIAN_POINT('',(46.3888571330605,37.5,-35.));
#479=CARTESIAN_POINT('',(46.3888571330604,37.5,0.));
#480=CARTESIAN_POINT('',(0.,37.5,0.));
#481=CARTESIAN_POINT('',(125.,37.5,0.));
#482=CARTESIAN_POINT('',(125.,37.5,-25.));
#483=CARTESIAN_POINT('',(125.,37.5,-25.));
#484=CARTESIAN_POINT('',(0.,37.5,-25.));
#485=CARTESIAN_POINT('',(0.,37.5,-25.));
#486=CARTESIAN_POINT('',(58.8011976525412,12.5,-57.0703009353964));
#487=CARTESIAN_POINT('',(34.1810793599006,12.5,-6.24999999999993));
#488=CARTESIAN_POINT('',(125.,12.5,-25.));
#489=CARTESIAN_POINT('',(125.,12.5,-25.));
#490=CARTESIAN_POINT('',(125.,12.5,-25.));
#491=CARTESIAN_POINT('',(125.,12.5,0.));
#492=CARTESIAN_POINT('',(125.,12.5,0.));
#493=CARTESIAN_POINT('',(34.1810793599006,12.5,0.));
#494=CARTESIAN_POINT('',(34.1810793599006,12.5,-35.));
#495=CARTESIAN_POINT('',(125.,12.5,-25.));
#496=CARTESIAN_POINT('',(38.6290443140031,34.2204811525517,-6.34858821812876));
#497=CARTESIAN_POINT('',(34.3012979948559,32.9084493598182,-6.29980830058084));
#498=CARTESIAN_POINT('',(29.8756611874397,32.346399199353,-6.2569705789921));
#499=CARTESIAN_POINT('',(20.8405053690063,32.7230079079859,-6.23126343070791));
#500=CARTESIAN_POINT('',(16.4797179803485,33.6506408861149,-6.25000000000017));
#501=CARTESIAN_POINT('',(12.2758078125885,35.3181148255707,-6.25000000000017));
#502=CARTESIAN_POINT('',(38.6290443140031,34.2204811525516,-6.34858821812878));
#503=CARTESIAN_POINT('',(12.2758078125884,35.3181148255707,-6.25));
#504=CARTESIAN_POINT('',(14.1136367720827,34.6407334965039,2.10084312223757E-14));
#505=CARTESIAN_POINT('',(13.8741677881566,34.7223942780765,-1.06470554835022));
#506=CARTESIAN_POINT('',(13.6186491520052,34.8118813352641,-2.12384338002224));
#507=CARTESIAN_POINT('',(13.0360621746606,35.024202681177,-4.2174652164017));
#508=CARTESIAN_POINT('',(12.7232014951896,35.1406568693718,-5.25681855077701));
#509=CARTESIAN_POINT('',(12.2758078125884,35.3181148255707,-6.25));
#510=CARTESIAN_POINT('',(14.1136367720828,34.6407334965039,0.));
#511=CARTESIAN_POINT('',(27.0239404020234,72.5,0.));
#512=CARTESIAN_POINT('',(46.3888571330604,37.5,-16.3849105073484));
#513=CARTESIAN_POINT('',(45.8779512865797,37.2173243093,-14.1094654887679));
#514=CARTESIAN_POINT('',(45.1856603389434,36.8362898518839,-11.8881437700018));
#515=CARTESIAN_POINT('',(43.3895192070845,35.9951386316244,-8.96192276424389));
#516=CARTESIAN_POINT('',(42.6636976855472,35.6713169460903,-8.07590547756963));
#517=CARTESIAN_POINT('',(40.8476403940155,34.951907879304,-6.75522259463667));
#518=CARTESIAN_POINT('',(39.7662251473908,34.5652373599316,-6.36140587960856));
#519=CARTESIAN_POINT('',(38.6290443140031,34.2204811525517,-6.34858821812866));
#520=CARTESIAN_POINT('',(27.0239404020234,72.5,-35.));
#521=CARTESIAN_POINT('',(5.59890981836029,22.9030589438707,0.));
#522=CARTESIAN_POINT('',(9.17947536215838,21.599839664089,6.40266078688037E-14));
#523=CARTESIAN_POINT('',(7.18477224018138,22.3258522266865,-6.25000000000001));
#524=CARTESIAN_POINT('',(7.67032971467786,22.1491237589443,-5.26636396574281));
#525=CARTESIAN_POINT('',(8.01150055760082,22.0249477273209,-4.22800247771851));
#526=CARTESIAN_POINT('',(8.64405251511071,21.7947176431605,-2.13240818757086));
#527=CARTESIAN_POINT('',(8.92076466214989,21.6940026581783,-1.06961555004864));
#528=CARTESIAN_POINT('',(9.17947536215839,21.599839664089,6.03487176372679E-14));
#529=CARTESIAN_POINT('',(7.18477224018137,22.3258522266865,-6.25));
#530=CARTESIAN_POINT('',(5.59890981836029,22.9030589438707,-6.25));
#531=CARTESIAN_POINT('',(5.59890981836029,22.9030589438707,-35.));
#532=CARTESIAN_POINT('',(125.,37.5,-25.));
#533=CARTESIAN_POINT('',(0.,25.,-25.));
#534=CARTESIAN_POINT('',(125.,37.5,0.));
#535=CARTESIAN_POINT('',(125.,37.5,-25.));
#536=CARTESIAN_POINT('',(8.,29.5,0.));
#537=CARTESIAN_POINT('',(0.,25.,0.));
#538=CARTESIAN_POINT('',(8.,29.5,-6.25));
#539=CARTESIAN_POINT('',(8.,29.5,-6.25));
#540=CARTESIAN_POINT('',(27.0239404020234,72.5,-6.25));
#541=CARTESIAN_POINT('',(10.840348971152,35.9200687753705,-6.25));
#542=CARTESIAN_POINT('',(1.39121243958279,31.8682889054517,-6.25));
#543=CARTESIAN_POINT('',(1.50701091053227,32.1914283216625,-6.25));
#544=CARTESIAN_POINT('',(1.64694728771163,32.5068945710616,-6.25));
#545=CARTESIAN_POINT('',(1.80877239805103,32.8096172194494,-6.25));
#546=CARTESIAN_POINT('',(1.99198879427629,33.1523560723818,-6.25));
#547=CARTESIAN_POINT('',(2.20449057676965,33.4809514004587,-6.25));
#548=CARTESIAN_POINT('',(2.44190453275441,33.788640826112,-6.25));
#549=CARTESIAN_POINT('',(2.67931848873917,34.0963302517653,-6.25));
#550=CARTESIAN_POINT('',(2.94327317272701,34.3852243880812,-6.25));
#551=CARTESIAN_POINT('',(3.22833648912351,34.6493778942102,-6.25));
#552=CARTESIAN_POINT('',(3.51339980552001,34.9135314003392,-6.25));
#553=CARTESIAN_POINT('',(3.82152716233018,35.1547562522554,-6.25));
#554=CARTESIAN_POINT('',(4.14637740571593,35.3680881264032,-6.25));
#555=CARTESIAN_POINT('',(4.47122764910169,35.581420000551,-6.25));
#556=CARTESIAN_POINT('',(4.81502910775286,35.7683222590343,-6.25));
#557=CARTESIAN_POINT('',(5.17070646722276,35.9249485183771,-6.25));
#558=CARTESIAN_POINT('',(5.52638382669265,36.0815747777199,-6.25));
#559=CARTESIAN_POINT('',(5.89637687602428,36.2089994246416,-6.25));
#560=CARTESIAN_POINT('',(6.27307128694402,36.3046001042261,-6.25));
#561=CARTESIAN_POINT('',(6.64976569786376,36.4002007838106,-6.25));
#562=CARTESIAN_POINT('',(7.03574542707242,36.4646332743479,-6.25));
#563=CARTESIAN_POINT('',(7.42306714598459,36.496571577592,-6.25));
#564=CARTESIAN_POINT('',(7.81038886489677,36.5285098808361,-6.25));
#565=CARTESIAN_POINT('',(8.20170942883587,36.5281730793916,-6.25));
#566=CARTESIAN_POINT('',(8.58897559669526,36.4955681045151,-6.25));
#567=CARTESIAN_POINT('',(8.97624176455465,36.4629631296385,-6.25));
#568=CARTESIAN_POINT('',(9.36211001060213,36.3978663256534,-6.25));
#569=CARTESIAN_POINT('',(9.73863930053698,36.3016173621455,-6.25));
#570=CARTESIAN_POINT('',(10.1151685904718,36.2053683986376,-6.25));
#571=CARTESIAN_POINT('',(10.4849417483381,36.0773070503765,-6.25));
#572=CARTESIAN_POINT('',(10.840348971152,35.9200687753704,-6.25));
#573=CARTESIAN_POINT('',(1.39121243958279,31.8682889054517,-6.25));
#574=CARTESIAN_POINT('',(8.,29.5,-6.25));
#575=CARTESIAN_POINT('',(5.59890981836029,22.9030589438707,-6.25));
#576=CARTESIAN_POINT('',(5.59890981836029,22.9030589438707,-6.25));
#577=CARTESIAN_POINT('',(8.,29.5,-6.25));
#578=CARTESIAN_POINT('',(6.97802575518324,26.6921488391018,-30.5857370981782));
#579=CARTESIAN_POINT('',(-3.92114985163819E-15,32.1793524973508,-47.3013297861318));
#580=CARTESIAN_POINT('',(12.2758078125884,27.3648634662717,-28.1013785209208));
#581=CARTESIAN_POINT('',(10.840348971152,27.8964021803004,-28.2948427911874));
#582=CARTESIAN_POINT('',(27.0239404020234,60.1972943147661,-40.0514060683762));
#583=CARTESIAN_POINT('',(1.75747741223582,30.8081107971749,-11.4803935087589));
#584=CARTESIAN_POINT('',(1.62420109862346,31.1336780432851,-9.87420602250045));
#585=CARTESIAN_POINT('',(1.51104090265997,31.4595881894624,-8.26632683720374));
#586=CARTESIAN_POINT('',(1.41513812119731,31.7856741461869,-6.65758028977683));
#587=CARTESIAN_POINT('',(1.40764974320596,31.8111359197078,-6.53196451455449));
#588=CARTESIAN_POINT('',(1.40026726140242,31.8365989308607,-6.40634263344693));
#589=CARTESIAN_POINT('',(1.39298965906773,31.8620631162135,-6.28071495946918));
#590=CARTESIAN_POINT('',(1.39239655616261,31.8641383714438,-6.27047667837437));
#591=CARTESIAN_POINT('',(1.39180423629387,31.8662138608875,-6.26023839937747));
#592=CARTESIAN_POINT('',(1.39121243958279,31.8682889054517,-6.25));
#593=CARTESIAN_POINT('',(8.,22.2273387877081,-26.2314724601157));
#594=CARTESIAN_POINT('',(38.6290443140031,26.427314184401,-27.7601384891622));
#595=CARTESIAN_POINT('',(35.1614571258301,37.7124646416022,-31.8675973447992));
#596=CARTESIAN_POINT('',(26.9631676316524,64.3935328924725,-41.5787120065409));
#597=CARTESIAN_POINT('',(8.,29.5,-6.25));
#598=CARTESIAN_POINT('',(8.,29.5,-6.25));
#599=CARTESIAN_POINT('',(0.77968196173344,29.5,-6.25));
#600=CARTESIAN_POINT('',(8.,29.5,0.1));
#601=CARTESIAN_POINT('',(16.,29.5,0.1));
#602=CARTESIAN_POINT('',(8.,29.5,0.1));
#603=CARTESIAN_POINT('',(8.,29.5,-6.25));
#604=CARTESIAN_POINT('',(8.,29.5,0.1));
#605=(
GEOMETRIC_REPRESENTATION_CONTEXT(3)
GLOBAL_UNCERTAINTY_ASSIGNED_CONTEXT((#606))
GLOBAL_UNIT_ASSIGNED_CONTEXT((#612,#608,#607))
REPRESENTATION_CONTEXT('SRHCL-2525-K16','TOP_LEVEL_ASSEMBLY_PART')
);
#606=UNCERTAINTY_MEASURE_WITH_UNIT(LENGTH_MEASURE(0.0508),#612,
'DISTANCE_ACCURACY_VALUE','Maximum Tolerance applied to model');
#607=(
NAMED_UNIT(*)
SI_UNIT($,.STERADIAN.)
SOLID_ANGLE_UNIT()
);
#608=(
CONVERSION_BASED_UNIT('DEGREE',#610)
NAMED_UNIT(#609)
PLANE_ANGLE_UNIT()
);
#609=DIMENSIONAL_EXPONENTS(0.,0.,0.,0.,0.,0.,0.);
#610=PLANE_ANGLE_MEASURE_WITH_UNIT(PLANE_ANGLE_MEASURE(0.0174532925),#611);
#611=(
NAMED_UNIT(*)
PLANE_ANGLE_UNIT()
SI_UNIT($,.RADIAN.)
);
#612=(
LENGTH_UNIT()
NAMED_UNIT(*)
SI_UNIT(.MILLI.,.METRE.)
);
ENDSEC;
END-ISO-10303-21;
