ISO-10303-21;
HEADER;
/* Generated by software containing ST-Developer
 * from STEP Tools, Inc. (www.steptools.com) 
 */
/* OPTION: using custom schema-name function */

FILE_DESCRIPTION(
/* description */ (''),
/* implementation_level */ '2;1');

FILE_NAME(
/* name */ 'SRHCR-2525-K16.stp',
/* time_stamp */ '2023-10-02T23:48:29+03:00',
/* author */ (''),
/* organization */ (''),
/* preprocessor_version */ 'ST-DEVELOPER v19.4',
/* originating_system */ 'SIEMENS PLM Software NX2306.3001',
/* authorisation */ '');

FILE_SCHEMA (('AUTOMOTIVE_DESIGN { 1 0 10303 214 3 1 1 1 }'));
ENDSEC;

DATA;
#10=SHAPE_REPRESENTATION_RELATIONSHIP('None',
'relationship between model1-None and model1-None',#22,#11);
#11=ADVANCED_BREP_SHAPE_REPRESENTATION('model1-None',(#102,#103),#605);
#12=SHAPE_DEFINITION_REPRESENTATION(#13,#22);
#13=PRODUCT_DEFINITION_SHAPE('','',#14);
#14=PRODUCT_DEFINITION(' ','',#16,#15);
#15=PRODUCT_DEFINITION_CONTEXT('part definition',#21,'design');
#16=PRODUCT_DEFINITION_FORMATION_WITH_SPECIFIED_SOURCE(' ',' ',#18,
 .NOT_KNOWN.);
#17=PRODUCT_RELATED_PRODUCT_CATEGORY('part','',(#18));
#18=PRODUCT('model1','model1',' ',(#19));
#19=PRODUCT_CONTEXT(' ',#21,'mechanical');
#20=APPLICATION_PROTOCOL_DEFINITION('international standard',
'automotive_design',2010,#21);
#21=APPLICATION_CONTEXT(
'core data for automotive mechanical design processes');
#22=SHAPE_REPRESENTATION('model1-None',(#332),#605);
#23=COLOUR_RGB('light gray',0.8,0.8,0.8);
#24=SURFACE_OF_LINEAR_EXTRUSION('',#76,#68);
#25=SURFACE_OF_LINEAR_EXTRUSION('',#77,#69);
#26=CYLINDRICAL_SURFACE('',#346,40.);
#27=CYLINDRICAL_SURFACE('',#361,12.5);
#28=CYLINDRICAL_SURFACE('',#362,42.0532925680276);
#29=LINE('',#468,#49);
#30=LINE('',#470,#50);
#31=LINE('',#472,#51);
#32=LINE('',#485,#52);
#33=LINE('',#487,#53);
#34=LINE('',#489,#54);
#35=LINE('',#491,#55);
#36=LINE('',#493,#56);
#37=LINE('',#495,#57);
#38=LINE('',#497,#58);
#39=LINE('',#499,#59);
#40=LINE('',#501,#60);
#41=LINE('',#528,#61);
#42=LINE('',#537,#62);
#43=LINE('',#539,#63);
#44=LINE('',#541,#64);
#45=LINE('',#549,#65);
#46=LINE('',#587,#66);
#47=LINE('',#588,#67);
#48=LINE('',#601,#70);
#49=VECTOR('',#378,1.);
#50=VECTOR('',#379,1.);
#51=VECTOR('',#380,1.);
#52=VECTOR('',#389,1.);
#53=VECTOR('',#390,1.);
#54=VECTOR('',#391,1.);
#55=VECTOR('',#392,1.);
#56=VECTOR('',#395,1.);
#57=VECTOR('',#396,1.);
#58=VECTOR('',#397,1.);
#59=VECTOR('',#398,1.);
#60=VECTOR('',#399,1.);
#61=VECTOR('',#406,1.);
#62=VECTOR('',#407,1.);
#63=VECTOR('',#410,1.);
#64=VECTOR('',#413,1.);
#65=VECTOR('',#426,1.);
#66=VECTOR('',#435,1.);
#67=VECTOR('',#436,1.);
#68=VECTOR('',#439,1.);
#69=VECTOR('',#442,1.);
#70=VECTOR('',#443,1.);
#71=ELLIPSE('',#338,6.42374200979694,6.15513553241078);
#72=ELLIPSE('',#339,13.87353813465,12.5);
#73=ELLIPSE('',#340,46.67423665041,42.0532925680276);
#74=ELLIPSE('',#342,36.5475550020386,12.5);
#75=ELLIPSE('',#357,24.6675345973812,2.70752719331063);
#76=ELLIPSE('',#359,40.,37.5877048314363);
#77=ELLIPSE('',#360,7.02031803826656,6.59694105612929);
#78=B_SPLINE_CURVE_WITH_KNOTS('',3,(#458,#459,#460,#461,#462,#463),
 .UNSPECIFIED.,.F.,.F.,(4,2,4),(0.,0.5,1.),.UNSPECIFIED.);
#79=B_SPLINE_CURVE_WITH_KNOTS('',3,(#478,#479,#480,#481),.UNSPECIFIED.,
 .F.,.F.,(4,4),(0.,1.),.UNSPECIFIED.);
#80=B_SPLINE_CURVE_WITH_KNOTS('',3,(#503,#504,#505,#506,#507,#508),
 .UNSPECIFIED.,.F.,.F.,(4,2,4),(0.,0.5,1.),.UNSPECIFIED.);
#81=B_SPLINE_CURVE_WITH_KNOTS('',3,(#511,#512,#513,#514,#515,#516,#517,
#518),.UNSPECIFIED.,.F.,.F.,(4,2,2,4),(0.,0.25,0.5,1.),.UNSPECIFIED.);
#82=B_SPLINE_CURVE_WITH_KNOTS('',3,(#521,#522,#523,#524,#525,#526),
 .UNSPECIFIED.,.F.,.F.,(4,2,4),(0.,0.5,1.),.UNSPECIFIED.);
#83=B_SPLINE_CURVE_WITH_KNOTS('',3,(#530,#531,#532,#533,#534,#535),
 .UNSPECIFIED.,.F.,.F.,(4,2,4),(0.,0.5,1.),.UNSPECIFIED.);
#84=B_SPLINE_CURVE_WITH_KNOTS('',3,(#553,#554,#555,#556,#557,#558,#559,
#560,#561,#562,#563,#564,#565,#566,#567,#568,#569,#570,#571,#572,#573,#574,
#575,#576,#577,#578,#579,#580,#581,#582,#583),.UNSPECIFIED.,.F.,.F.,(4,
3,3,3,3,3,3,3,3,3,4),(0.,0.101181762276666,0.202363524553334,0.303545286830001,
0.404727049106667,0.505908811383334,0.607090573660001,0.708272335936668,
0.809454098213335,0.910635860490001,1.),.UNSPECIFIED.);
#85=B_SPLINE_CURVE_WITH_KNOTS('',3,(#590,#591,#592,#593,#594,#595,#596,
#597,#598,#599),.UNSPECIFIED.,.F.,.F.,(4,3,3,4),(0.,0.00586810554770688,
0.0778633319197949,1.),.UNSPECIFIED.);
#86=PRESENTATION_LAYER_ASSIGNMENT('1','Layer 1',(#102,#103));
#87=STYLED_ITEM('',(#89),#102);
#88=STYLED_ITEM('',(#90),#103);
#89=PRESENTATION_STYLE_ASSIGNMENT((#91));
#90=PRESENTATION_STYLE_ASSIGNMENT((#92));
#91=SURFACE_STYLE_USAGE(.BOTH.,#93);
#92=SURFACE_STYLE_USAGE(.BOTH.,#94);
#93=SURFACE_SIDE_STYLE('',(#95));
#94=SURFACE_SIDE_STYLE('',(#96));
#95=SURFACE_STYLE_FILL_AREA(#97);
#96=SURFACE_STYLE_FILL_AREA(#98);
#97=FILL_AREA_STYLE('',(#99));
#98=FILL_AREA_STYLE('',(#100));
#99=FILL_AREA_STYLE_COLOUR('',#101);
#100=FILL_AREA_STYLE_COLOUR('',#23);
#101=DRAUGHTING_PRE_DEFINED_COLOUR('yellow');
#102=MANIFOLD_SOLID_BREP('',#104);
#103=MANIFOLD_SOLID_BREP('',#105);
#104=CLOSED_SHELL('',(#135,#136,#137));
#105=CLOSED_SHELL('',(#138,#139,#140,#141,#142,#143,#144,#145,#146,#147,
#148,#149,#150,#151,#152,#153));
#106=PLANE('',#336);
#107=PLANE('',#337);
#108=PLANE('',#341);
#109=PLANE('',#343);
#110=PLANE('',#344);
#111=PLANE('',#347);
#112=PLANE('',#348);
#113=PLANE('',#349);
#114=PLANE('',#351);
#115=PLANE('',#356);
#116=PLANE('',#358);
#117=FACE_OUTER_BOUND('',#161,.T.);
#118=FACE_OUTER_BOUND('',#162,.T.);
#119=FACE_OUTER_BOUND('',#163,.T.);
#120=FACE_OUTER_BOUND('',#164,.T.);
#121=FACE_OUTER_BOUND('',#165,.T.);
#122=FACE_OUTER_BOUND('',#166,.T.);
#123=FACE_OUTER_BOUND('',#167,.T.);
#124=FACE_OUTER_BOUND('',#168,.T.);
#125=FACE_OUTER_BOUND('',#169,.T.);
#126=FACE_OUTER_BOUND('',#170,.T.);
#127=FACE_OUTER_BOUND('',#171,.T.);
#128=FACE_OUTER_BOUND('',#172,.T.);
#129=FACE_OUTER_BOUND('',#173,.T.);
#130=FACE_OUTER_BOUND('',#174,.T.);
#131=FACE_OUTER_BOUND('',#175,.T.);
#132=FACE_OUTER_BOUND('',#176,.T.);
#133=FACE_OUTER_BOUND('',#177,.T.);
#134=FACE_OUTER_BOUND('',#178,.T.);
#135=ADVANCED_FACE('',(#157,#158),#154,.T.);
#136=ADVANCED_FACE('',(#117),#106,.T.);
#137=ADVANCED_FACE('',(#118),#107,.F.);
#138=ADVANCED_FACE('',(#119),#108,.F.);
#139=ADVANCED_FACE('',(#120),#109,.T.);
#140=ADVANCED_FACE('',(#121),#110,.T.);
#141=ADVANCED_FACE('',(#122),#26,.F.);
#142=ADVANCED_FACE('',(#123),#111,.F.);
#143=ADVANCED_FACE('',(#124),#112,.F.);
#144=ADVANCED_FACE('',(#125),#113,.T.);
#145=ADVANCED_FACE('',(#126),#114,.T.);
#146=ADVANCED_FACE('',(#127),#155,.F.);
#147=ADVANCED_FACE('',(#128),#115,.T.);
#148=ADVANCED_FACE('',(#129),#116,.F.);
#149=ADVANCED_FACE('',(#130),#24,.F.);
#150=ADVANCED_FACE('',(#131),#25,.F.);
#151=ADVANCED_FACE('',(#132),#27,.F.);
#152=ADVANCED_FACE('',(#133),#28,.F.);
#153=ADVANCED_FACE('',(#134),#156,.T.);
#154=CONICAL_SURFACE('',#335,8.,7.);
#155=CONICAL_SURFACE('',#353,7.22031803826656,7.);
#156=CONICAL_SURFACE('',#363,7.02031803826656,7.);
#157=FACE_BOUND('',#159,.T.);
#158=FACE_BOUND('',#160,.T.);
#159=EDGE_LOOP('',(#179));
#160=EDGE_LOOP('',(#180));
#161=EDGE_LOOP('',(#181));
#162=EDGE_LOOP('',(#182));
#163=EDGE_LOOP('',(#183,#184,#185,#186,#187,#188,#189,#190));
#164=EDGE_LOOP('',(#191,#192,#193,#194,#195));
#165=EDGE_LOOP('',(#196,#197,#198,#199,#200,#201));
#166=EDGE_LOOP('',(#202,#203,#204,#205,#206));
#167=EDGE_LOOP('',(#207,#208,#209,#210));
#168=EDGE_LOOP('',(#211,#212,#213,#214));
#169=EDGE_LOOP('',(#215,#216,#217,#218));
#170=EDGE_LOOP('',(#219,#220,#221,#222,#223,#224));
#171=EDGE_LOOP('',(#225,#226,#227,#228));
#172=EDGE_LOOP('',(#229,#230,#231,#232,#233));
#173=EDGE_LOOP('',(#234,#235,#236,#237,#238));
#174=EDGE_LOOP('',(#239,#240,#241,#242));
#175=EDGE_LOOP('',(#243,#244,#245,#246));
#176=EDGE_LOOP('',(#247,#248,#249,#250));
#177=EDGE_LOOP('',(#251,#252,#253,#254));
#178=EDGE_LOOP('',(#255,#256,#257,#258));
#179=ORIENTED_EDGE('',*,*,#285,.F.);
#180=ORIENTED_EDGE('',*,*,#286,.T.);
#181=ORIENTED_EDGE('',*,*,#285,.T.);
#182=ORIENTED_EDGE('',*,*,#286,.F.);
#183=ORIENTED_EDGE('',*,*,#287,.T.);
#184=ORIENTED_EDGE('',*,*,#288,.T.);
#185=ORIENTED_EDGE('',*,*,#289,.T.);
#186=ORIENTED_EDGE('',*,*,#290,.F.);
#187=ORIENTED_EDGE('',*,*,#291,.F.);
#188=ORIENTED_EDGE('',*,*,#292,.T.);
#189=ORIENTED_EDGE('',*,*,#293,.T.);
#190=ORIENTED_EDGE('',*,*,#294,.T.);
#191=ORIENTED_EDGE('',*,*,#295,.F.);
#192=ORIENTED_EDGE('',*,*,#296,.T.);
#193=ORIENTED_EDGE('',*,*,#297,.T.);
#194=ORIENTED_EDGE('',*,*,#298,.F.);
#195=ORIENTED_EDGE('',*,*,#299,.T.);
#196=ORIENTED_EDGE('',*,*,#300,.F.);
#197=ORIENTED_EDGE('',*,*,#301,.T.);
#198=ORIENTED_EDGE('',*,*,#302,.F.);
#199=ORIENTED_EDGE('',*,*,#303,.F.);
#200=ORIENTED_EDGE('',*,*,#304,.T.);
#201=ORIENTED_EDGE('',*,*,#290,.T.);
#202=ORIENTED_EDGE('',*,*,#305,.T.);
#203=ORIENTED_EDGE('',*,*,#306,.T.);
#204=ORIENTED_EDGE('',*,*,#299,.F.);
#205=ORIENTED_EDGE('',*,*,#307,.F.);
#206=ORIENTED_EDGE('',*,*,#308,.F.);
#207=ORIENTED_EDGE('',*,*,#301,.F.);
#208=ORIENTED_EDGE('',*,*,#309,.T.);
#209=ORIENTED_EDGE('',*,*,#310,.F.);
#210=ORIENTED_EDGE('',*,*,#311,.F.);
#211=ORIENTED_EDGE('',*,*,#296,.F.);
#212=ORIENTED_EDGE('',*,*,#291,.T.);
#213=ORIENTED_EDGE('',*,*,#304,.F.);
#214=ORIENTED_EDGE('',*,*,#312,.F.);
#215=ORIENTED_EDGE('',*,*,#313,.F.);
#216=ORIENTED_EDGE('',*,*,#297,.F.);
#217=ORIENTED_EDGE('',*,*,#312,.T.);
#218=ORIENTED_EDGE('',*,*,#303,.T.);
#219=ORIENTED_EDGE('',*,*,#311,.T.);
#220=ORIENTED_EDGE('',*,*,#314,.T.);
#221=ORIENTED_EDGE('',*,*,#307,.T.);
#222=ORIENTED_EDGE('',*,*,#298,.T.);
#223=ORIENTED_EDGE('',*,*,#313,.T.);
#224=ORIENTED_EDGE('',*,*,#302,.T.);
#225=ORIENTED_EDGE('',*,*,#308,.T.);
#226=ORIENTED_EDGE('',*,*,#314,.F.);
#227=ORIENTED_EDGE('',*,*,#310,.T.);
#228=ORIENTED_EDGE('',*,*,#315,.T.);
#229=ORIENTED_EDGE('',*,*,#316,.T.);
#230=ORIENTED_EDGE('',*,*,#315,.F.);
#231=ORIENTED_EDGE('',*,*,#317,.T.);
#232=ORIENTED_EDGE('',*,*,#318,.T.);
#233=ORIENTED_EDGE('',*,*,#319,.F.);
#234=ORIENTED_EDGE('',*,*,#289,.F.);
#235=ORIENTED_EDGE('',*,*,#320,.T.);
#236=ORIENTED_EDGE('',*,*,#317,.F.);
#237=ORIENTED_EDGE('',*,*,#309,.F.);
#238=ORIENTED_EDGE('',*,*,#300,.T.);
#239=ORIENTED_EDGE('',*,*,#316,.F.);
#240=ORIENTED_EDGE('',*,*,#321,.T.);
#241=ORIENTED_EDGE('',*,*,#294,.F.);
#242=ORIENTED_EDGE('',*,*,#322,.F.);
#243=ORIENTED_EDGE('',*,*,#319,.T.);
#244=ORIENTED_EDGE('',*,*,#323,.T.);
#245=ORIENTED_EDGE('',*,*,#287,.F.);
#246=ORIENTED_EDGE('',*,*,#321,.F.);
#247=ORIENTED_EDGE('',*,*,#324,.T.);
#248=ORIENTED_EDGE('',*,*,#292,.F.);
#249=ORIENTED_EDGE('',*,*,#295,.T.);
#250=ORIENTED_EDGE('',*,*,#306,.F.);
#251=ORIENTED_EDGE('',*,*,#322,.T.);
#252=ORIENTED_EDGE('',*,*,#293,.F.);
#253=ORIENTED_EDGE('',*,*,#324,.F.);
#254=ORIENTED_EDGE('',*,*,#305,.F.);
#255=ORIENTED_EDGE('',*,*,#288,.F.);
#256=ORIENTED_EDGE('',*,*,#323,.F.);
#257=ORIENTED_EDGE('',*,*,#318,.F.);
#258=ORIENTED_EDGE('',*,*,#320,.F.);
#259=VERTEX_POINT('',#452);
#260=VERTEX_POINT('',#454);
#261=VERTEX_POINT('',#464);
#262=VERTEX_POINT('',#465);
#263=VERTEX_POINT('',#467);
#264=VERTEX_POINT('',#469);
#265=VERTEX_POINT('',#471);
#266=VERTEX_POINT('',#473);
#267=VERTEX_POINT('',#475);
#268=VERTEX_POINT('',#477);
#269=VERTEX_POINT('',#484);
#270=VERTEX_POINT('',#486);
#271=VERTEX_POINT('',#488);
#272=VERTEX_POINT('',#490);
#273=VERTEX_POINT('',#494);
#274=VERTEX_POINT('',#496);
#275=VERTEX_POINT('',#498);
#276=VERTEX_POINT('',#500);
#277=VERTEX_POINT('',#509);
#278=VERTEX_POINT('',#510);
#279=VERTEX_POINT('',#520);
#280=VERTEX_POINT('',#529);
#281=VERTEX_POINT('',#536);
#282=VERTEX_POINT('',#548);
#283=VERTEX_POINT('',#550);
#284=VERTEX_POINT('',#552);
#285=EDGE_CURVE('',#259,#259,#325,.T.);
#286=EDGE_CURVE('',#260,#260,#326,.T.);
#287=EDGE_CURVE('',#261,#262,#78,.T.);
#288=EDGE_CURVE('',#262,#263,#71,.T.);
#289=EDGE_CURVE('',#263,#264,#29,.T.);
#290=EDGE_CURVE('',#265,#264,#30,.T.);
#291=EDGE_CURVE('',#266,#265,#31,.T.);
#292=EDGE_CURVE('',#266,#267,#72,.T.);
#293=EDGE_CURVE('',#267,#268,#73,.T.);
#294=EDGE_CURVE('',#268,#261,#79,.T.);
#295=EDGE_CURVE('',#266,#269,#74,.T.);
#296=EDGE_CURVE('',#266,#270,#32,.T.);
#297=EDGE_CURVE('',#270,#271,#33,.T.);
#298=EDGE_CURVE('',#272,#271,#34,.T.);
#299=EDGE_CURVE('',#272,#269,#35,.T.);
#300=EDGE_CURVE('',#273,#264,#36,.T.);
#301=EDGE_CURVE('',#273,#274,#37,.T.);
#302=EDGE_CURVE('',#275,#274,#38,.T.);
#303=EDGE_CURVE('',#276,#275,#39,.T.);
#304=EDGE_CURVE('',#276,#265,#40,.T.);
#305=EDGE_CURVE('',#277,#278,#80,.T.);
#306=EDGE_CURVE('',#278,#269,#81,.T.);
#307=EDGE_CURVE('',#279,#272,#327,.T.);
#308=EDGE_CURVE('',#277,#279,#82,.T.);
#309=EDGE_CURVE('',#273,#280,#41,.T.);
#310=EDGE_CURVE('',#281,#280,#83,.T.);
#311=EDGE_CURVE('',#274,#281,#42,.T.);
#312=EDGE_CURVE('',#270,#276,#43,.T.);
#313=EDGE_CURVE('',#271,#275,#44,.T.);
#314=EDGE_CURVE('',#281,#279,#328,.T.);
#315=EDGE_CURVE('',#280,#277,#329,.T.);
#316=EDGE_CURVE('',#282,#277,#330,.T.);
#317=EDGE_CURVE('',#280,#283,#45,.T.);
#318=EDGE_CURVE('',#283,#284,#331,.T.);
#319=EDGE_CURVE('',#282,#284,#84,.T.);
#320=EDGE_CURVE('',#263,#283,#75,.T.);
#321=EDGE_CURVE('',#282,#261,#46,.T.);
#322=EDGE_CURVE('',#277,#268,#47,.T.);
#323=EDGE_CURVE('',#284,#262,#85,.T.);
#324=EDGE_CURVE('',#278,#267,#48,.T.);
#325=CIRCLE('',#333,7.22031803826656);
#326=CIRCLE('',#334,8.);
#327=CIRCLE('',#345,40.);
#328=CIRCLE('',#350,7.98772154390971);
#329=CIRCLE('',#352,7.22031803826656);
#330=CIRCLE('',#354,40.);
#331=CIRCLE('',#355,7.02031803826656);
#332=AXIS2_PLACEMENT_3D('',#450,#364,#365);
#333=AXIS2_PLACEMENT_3D('',#451,#366,#367);
#334=AXIS2_PLACEMENT_3D('',#453,#368,#369);
#335=AXIS2_PLACEMENT_3D('',#455,#370,#371);
#336=AXIS2_PLACEMENT_3D('',#456,#372,#373);
#337=AXIS2_PLACEMENT_3D('',#457,#374,#375);
#338=AXIS2_PLACEMENT_3D('',#466,#376,#377);
#339=AXIS2_PLACEMENT_3D('',#474,#381,#382);
#340=AXIS2_PLACEMENT_3D('',#476,#383,#384);
#341=AXIS2_PLACEMENT_3D('',#482,#385,#386);
#342=AXIS2_PLACEMENT_3D('',#483,#387,#388);
#343=AXIS2_PLACEMENT_3D('',#492,#393,#394);
#344=AXIS2_PLACEMENT_3D('',#502,#400,#401);
#345=AXIS2_PLACEMENT_3D('',#519,#402,#403);
#346=AXIS2_PLACEMENT_3D('',#527,#404,#405);
#347=AXIS2_PLACEMENT_3D('',#538,#408,#409);
#348=AXIS2_PLACEMENT_3D('',#540,#411,#412);
#349=AXIS2_PLACEMENT_3D('',#542,#414,#415);
#350=AXIS2_PLACEMENT_3D('',#543,#416,#417);
#351=AXIS2_PLACEMENT_3D('',#544,#418,#419);
#352=AXIS2_PLACEMENT_3D('',#545,#420,#421);
#353=AXIS2_PLACEMENT_3D('',#546,#422,#423);
#354=AXIS2_PLACEMENT_3D('',#547,#424,#425);
#355=AXIS2_PLACEMENT_3D('',#551,#427,#428);
#356=AXIS2_PLACEMENT_3D('',#584,#429,#430);
#357=AXIS2_PLACEMENT_3D('',#585,#431,#432);
#358=AXIS2_PLACEMENT_3D('',#586,#433,#434);
#359=AXIS2_PLACEMENT_3D('',#589,#437,#438);
#360=AXIS2_PLACEMENT_3D('',#600,#440,#441);
#361=AXIS2_PLACEMENT_3D('',#602,#444,#445);
#362=AXIS2_PLACEMENT_3D('',#603,#446,#447);
#363=AXIS2_PLACEMENT_3D('',#604,#448,#449);
#364=DIRECTION('',(0.,0.,1.));
#365=DIRECTION('',(1.,0.,0.));
#366=DIRECTION('',(0.,0.,-1.));
#367=DIRECTION('',(-1.,0.,0.));
#368=DIRECTION('',(0.,0.,-1.));
#369=DIRECTION('',(1.,1.0842021724855E-16,0.));
#370=DIRECTION('',(0.,0.,1.));
#371=DIRECTION('',(1.,1.19375797693599E-16,-8.4246982226472E-17));
#372=DIRECTION('',(0.,0.,-1.));
#373=DIRECTION('',(-1.,0.,0.));
#374=DIRECTION('',(0.,0.,-1.));
#375=DIRECTION('',(-1.,0.,0.));
#376=DIRECTION('',(-0.284015344703922,0.,-0.958819734868192));
#377=DIRECTION('',(-0.958819734868193,0.,0.284015344703922));
#378=DIRECTION('',(0.918659829917056,0.286382834452365,-0.272119438901001));
#379=DIRECTION('',(-0.958819734868193,0.,0.284015344703922));
#380=DIRECTION('',(0.,1.,0.));
#381=DIRECTION('',(0.284015344703922,0.,0.958819734868193));
#382=DIRECTION('',(-0.589857707592639,-0.788377748246761,0.174723813096336));
#383=DIRECTION('',(0.284015344703922,0.,0.958819734868193));
#384=DIRECTION('',(-0.589857707592639,-0.788377748246761,0.174723813096336));
#385=DIRECTION('',(0.284015344703922,0.,0.958819734868193));
#386=DIRECTION('',(0.958819734868193,0.,-0.284015344703922));
#387=DIRECTION('',(0.,-1.,0.));
#388=DIRECTION('',(0.,0.,1.));
#389=DIRECTION('',(1.,0.,0.));
#390=DIRECTION('',(0.,0.,1.));
#391=DIRECTION('',(1.,0.,0.));
#392=DIRECTION('',(0.,0.,-1.));
#393=DIRECTION('',(0.,-1.,0.));
#394=DIRECTION('',(0.,0.,-1.));
#395=DIRECTION('',(0.435986328515601,0.,-0.899953288425286));
#396=DIRECTION('',(0.,0.,1.));
#397=DIRECTION('',(-1.,0.,0.));
#398=DIRECTION('',(0.,0.,1.));
#399=DIRECTION('',(-1.,0.,0.));
#400=DIRECTION('',(0.,1.,0.));
#401=DIRECTION('',(0.,0.,1.));
#402=DIRECTION('',(0.,0.,-1.));
#403=DIRECTION('',(1.,0.,0.));
#404=DIRECTION('',(0.,0.,1.));
#405=DIRECTION('',(1.,0.,0.));
#406=DIRECTION('',(-0.939692620785908,-0.342020143325669,-3.30517459305916E-16));
#407=DIRECTION('',(-0.939692620785908,-0.342020143325669,0.));
#408=DIRECTION('',(0.342020143325669,-0.939692620785908,0.));
#409=DIRECTION('',(0.939692620785908,0.342020143325669,0.));
#410=DIRECTION('',(0.,1.,0.));
#411=DIRECTION('',(0.,0.,1.));
#412=DIRECTION('',(1.,0.,0.));
#413=DIRECTION('',(0.,1.,0.));
#414=DIRECTION('',(1.,0.,0.));
#415=DIRECTION('',(0.,0.,-1.));
#416=DIRECTION('',(0.,0.,-1.));
#417=DIRECTION('',(1.,0.,0.));
#418=DIRECTION('',(0.,0.,1.));
#419=DIRECTION('',(1.,0.,0.));
#420=DIRECTION('',(0.,0.,-1.));
#421=DIRECTION('',(1.,0.,0.));
#422=DIRECTION('',(0.,0.,1.));
#423=DIRECTION('',(1.,0.,1.73465837369867E-16));
#424=DIRECTION('',(0.,0.,-1.));
#425=DIRECTION('',(1.,0.,0.));
#426=DIRECTION('',(-0.939692620785908,-0.342020143325669,0.));
#427=DIRECTION('',(0.,0.,1.));
#428=DIRECTION('',(1.,0.,0.));
#429=DIRECTION('',(0.,0.,1.));
#430=DIRECTION('',(1.,0.,0.));
#431=DIRECTION('',(-0.337419706756524,0.927053025192549,-0.16346446088885));
#432=DIRECTION('',(-0.0559081383418579,0.153606347657999,0.986549223316463));
#433=DIRECTION('',(0.337419706756524,-0.92705302519255,0.16346446088885));
#434=DIRECTION('',(0.939692620785908,0.342020143325669,0.));
#435=DIRECTION('',(0.,0.342020143325668,-0.939692620785909));
#436=DIRECTION('',(0.,0.342020143325668,-0.939692620785909));
#437=DIRECTION('',(0.,-0.342020143325668,0.939692620785908));
#438=DIRECTION('',(-1.,0.,0.));
#439=DIRECTION('',(0.,-0.342020143325668,0.939692620785909));
#440=DIRECTION('',(0.,0.342020143325668,-0.939692620785908));
#441=DIRECTION('',(-1.,0.,0.));
#442=DIRECTION('',(0.,-0.342020143325668,0.939692620785909));
#443=DIRECTION('',(0.,0.342020143325668,-0.939692620785909));
#444=DIRECTION('',(0.,-0.342020143325668,0.939692620785909));
#445=DIRECTION('',(0.,-0.939692620785909,-0.342020143325669));
#446=DIRECTION('',(0.,-0.342020143325668,0.939692620785909));
#447=DIRECTION('',(0.,-0.939692620785909,-0.342020143325669));
#448=DIRECTION('',(0.,0.,1.));
#449=DIRECTION('',(1.,1.20276767800593E-16,1.737331090453E-16));
#450=CARTESIAN_POINT('',(0.,0.,0.));
#451=CARTESIAN_POINT('',(8.,-4.5,-6.25));
#452=CARTESIAN_POINT('',(0.77968196173344,-4.5,-6.25));
#453=CARTESIAN_POINT('',(8.,-4.5,0.1));
#454=CARTESIAN_POINT('',(16.,-4.5,0.1));
#455=CARTESIAN_POINT('',(8.,-4.5,0.1));
#456=CARTESIAN_POINT('',(8.,-4.5,-6.25));
#457=CARTESIAN_POINT('',(8.,-4.5,0.1));
#458=CARTESIAN_POINT('',(10.840348971152,-8.03711054560292,-14.1708626375172));
#459=CARTESIAN_POINT('',(9.31411742453874,-8.87688910319003,-13.7187722569735));
#460=CARTESIAN_POINT('',(7.52410934311263,-9.20046523911822,-13.1885477071639));
#461=CARTESIAN_POINT('',(4.14482986830201,-8.46896400277015,-12.1875595234766));
#462=CARTESIAN_POINT('',(2.59866902784079,-7.35236801580491,-11.7295658171501));
#463=CARTESIAN_POINT('',(1.75747741223581,-5.80811079717488,-11.4803935087589));
#464=CARTESIAN_POINT('',(10.840348971152,-8.03711054560296,-14.1708626375172));
#465=CARTESIAN_POINT('',(1.75747741223582,-5.80811079717488,-11.4803935087589));
#466=CARTESIAN_POINT('',(7.77598677593885,-4.5,-13.2631572018434));
#467=CARTESIAN_POINT('',(4.26772503802603,0.559058608519461,-12.2239627312145));
#468=CARTESIAN_POINT('',(-4.15949872287914,-2.06804246700078,-9.7277053281693));
#469=CARTESIAN_POINT('',(42.5719174269439,12.5,-23.5701814304358));
#470=CARTESIAN_POINT('',(0.979681961733444,12.5,-11.25));
#471=CARTESIAN_POINT('',(47.3989040223631,12.5,-25.));
#472=CARTESIAN_POINT('',(47.3989040223632,-20.,-25.));
#473=CARTESIAN_POINT('',(47.3989040223632,-12.5,-25.));
#474=CARTESIAN_POINT('',(35.1614571258301,-16.5314202352452,-21.3751030853651));
#475=CARTESIAN_POINT('',(38.6290443140031,-3.37742640216265,-22.4022492054595));
#476=CARTESIAN_POINT('',(26.9631676316524,-47.6309264902148,-18.9466591015838));
#477=CARTESIAN_POINT('',(12.2758078125884,-7.2803956222333,-14.5960649178133));
#478=CARTESIAN_POINT('',(12.2758078125884,-7.2803956222333,-14.5960649178133));
#479=CARTESIAN_POINT('',(11.7931659267735,-7.52386973833729,-14.4530998780009));
#480=CARTESIAN_POINT('',(11.3145392283792,-7.7761967864032,-14.3113241908874));
#481=CARTESIAN_POINT('',(10.840348971152,-8.03711054560296,-14.1708626375172));
#482=CARTESIAN_POINT('',(0.979681961733444,-20.,-11.25));
#483=CARTESIAN_POINT('',(35.1614571258301,-12.5,-32.4513391500337));
#484=CARTESIAN_POINT('',(46.3888571330605,-12.5,-16.3849105073485));
#485=CARTESIAN_POINT('',(0.,-12.5,-25.));
#486=CARTESIAN_POINT('',(125.,-12.5,-25.));
#487=CARTESIAN_POINT('',(125.,-12.5,-25.));
#488=CARTESIAN_POINT('',(125.,-12.5,0.));
#489=CARTESIAN_POINT('',(0.,-12.5,0.));
#490=CARTESIAN_POINT('',(46.3888571330604,-12.5,0.));
#491=CARTESIAN_POINT('',(46.3888571330605,-12.5,-35.));
#492=CARTESIAN_POINT('',(0.,-12.5,-25.));
#493=CARTESIAN_POINT('',(58.8011976525412,12.5,-57.0703009353964));
#494=CARTESIAN_POINT('',(34.1810793599006,12.5,-6.24999999999993));
#495=CARTESIAN_POINT('',(34.1810793599006,12.5,-35.));
#496=CARTESIAN_POINT('',(34.1810793599006,12.5,0.));
#497=CARTESIAN_POINT('',(125.,12.5,0.));
#498=CARTESIAN_POINT('',(125.,12.5,0.));
#499=CARTESIAN_POINT('',(125.,12.5,-25.));
#500=CARTESIAN_POINT('',(125.,12.5,-25.));
#501=CARTESIAN_POINT('',(125.,12.5,-25.));
#502=CARTESIAN_POINT('',(125.,12.5,-25.));
#503=CARTESIAN_POINT('',(12.2758078125885,-10.3181148255707,-6.25000000000017));
#504=CARTESIAN_POINT('',(16.4797179803485,-8.65064088611486,-6.25000000000017));
#505=CARTESIAN_POINT('',(20.8405053690063,-7.72300790798587,-6.23126343070791));
#506=CARTESIAN_POINT('',(29.8756611874397,-7.34639919935297,-6.2569705789921));
#507=CARTESIAN_POINT('',(34.3012979948559,-7.90844935981823,-6.29980830058084));
#508=CARTESIAN_POINT('',(38.6290443140031,-9.22048115255166,-6.34858821812876));
#509=CARTESIAN_POINT('',(12.2758078125884,-10.3181148255707,-6.25));
#510=CARTESIAN_POINT('',(38.6290443140031,-9.22048115255162,-6.34858821812878));
#511=CARTESIAN_POINT('',(38.6290443140031,-9.22048115255166,-6.34858821812866));
#512=CARTESIAN_POINT('',(39.7662251473907,-9.56523735993161,-6.36140587960856));
#513=CARTESIAN_POINT('',(40.8476403940155,-9.95190787930402,-6.75522259463668));
#514=CARTESIAN_POINT('',(42.6636976855472,-10.6713169460903,-8.07590547756963));
#515=CARTESIAN_POINT('',(43.3895192070845,-10.9951386316244,-8.96192276424389));
#516=CARTESIAN_POINT('',(45.1856603389434,-11.8362898518839,-11.8881437700018));
#517=CARTESIAN_POINT('',(45.8779512865797,-12.2173243093001,-14.1094654887679));
#518=CARTESIAN_POINT('',(46.3888571330604,-12.5,-16.3849105073484));
#519=CARTESIAN_POINT('',(27.0239404020234,-47.5,0.));
#520=CARTESIAN_POINT('',(14.1136367720828,-9.64073349650388,0.));
#521=CARTESIAN_POINT('',(12.2758078125884,-10.3181148255707,-6.25000000000001));
#522=CARTESIAN_POINT('',(12.7232014951896,-10.1406568693717,-5.25681855077702));
#523=CARTESIAN_POINT('',(13.0360621746607,-10.024202681177,-4.21746521640171));
#524=CARTESIAN_POINT('',(13.6186491520052,-9.8118813352641,-2.12384338002225));
#525=CARTESIAN_POINT('',(13.8741677881566,-9.72239427807646,-1.06470554835022));
#526=CARTESIAN_POINT('',(14.1136367720827,-9.6407334965039,2.11585216087483E-14));
#527=CARTESIAN_POINT('',(27.0239404020234,-47.5,-35.));
#528=CARTESIAN_POINT('',(5.59890981836029,2.09694105612928,-6.25));
#529=CARTESIAN_POINT('',(7.18477224018137,2.67414777331346,-6.25));
#530=CARTESIAN_POINT('',(9.17947536215839,3.40016033591096,5.8901968350768E-14));
#531=CARTESIAN_POINT('',(8.9207646621499,3.3059973418217,-1.06961555004864));
#532=CARTESIAN_POINT('',(8.64405251511071,3.20528235683954,-2.13240818757086));
#533=CARTESIAN_POINT('',(8.01150055760082,2.97505227267912,-4.22800247771851));
#534=CARTESIAN_POINT('',(7.67032971467786,2.85087624105565,-5.26636396574281));
#535=CARTESIAN_POINT('',(7.18477224018139,2.67414777331347,-6.25000000000001));
#536=CARTESIAN_POINT('',(9.17947536215838,3.40016033591096,6.40266078688037E-14));
#537=CARTESIAN_POINT('',(5.59890981836029,2.09694105612928,0.));
#538=CARTESIAN_POINT('',(5.59890981836029,2.09694105612928,-35.));
#539=CARTESIAN_POINT('',(125.,-12.5,-25.));
#540=CARTESIAN_POINT('',(0.,0.,-25.));
#541=CARTESIAN_POINT('',(125.,-12.5,0.));
#542=CARTESIAN_POINT('',(125.,-12.5,-25.));
#543=CARTESIAN_POINT('',(8.,-4.5,0.));
#544=CARTESIAN_POINT('',(0.,0.,0.));
#545=CARTESIAN_POINT('',(8.,-4.5,-6.25));
#546=CARTESIAN_POINT('',(8.,-4.5,-6.25));
#547=CARTESIAN_POINT('',(27.0239404020234,-47.5,-6.25));
#548=CARTESIAN_POINT('',(10.840348971152,-10.9200687753705,-6.25));
#549=CARTESIAN_POINT('',(5.59890981836029,2.09694105612928,-6.25));
#550=CARTESIAN_POINT('',(5.59890981836029,2.09694105612928,-6.25));
#551=CARTESIAN_POINT('',(8.,-4.5,-6.25));
#552=CARTESIAN_POINT('',(1.39121243958279,-6.8682889054517,-6.25));
#553=CARTESIAN_POINT('',(10.840348971152,-10.9200687753704,-6.25));
#554=CARTESIAN_POINT('',(10.4849417483381,-11.0773070503765,-6.25));
#555=CARTESIAN_POINT('',(10.1151685904718,-11.2053683986376,-6.25));
#556=CARTESIAN_POINT('',(9.73863930053698,-11.3016173621455,-6.25));
#557=CARTESIAN_POINT('',(9.36211001060213,-11.3978663256534,-6.25));
#558=CARTESIAN_POINT('',(8.97624176455465,-11.4629631296385,-6.25));
#559=CARTESIAN_POINT('',(8.58897559669526,-11.4955681045151,-6.25));
#560=CARTESIAN_POINT('',(8.20170942883587,-11.5281730793916,-6.25));
#561=CARTESIAN_POINT('',(7.81038886489677,-11.5285098808361,-6.25));
#562=CARTESIAN_POINT('',(7.42306714598459,-11.496571577592,-6.25));
#563=CARTESIAN_POINT('',(7.03574542707242,-11.4646332743479,-6.25));
#564=CARTESIAN_POINT('',(6.64976569786376,-11.4002007838106,-6.25));
#565=CARTESIAN_POINT('',(6.27307128694402,-11.3046001042261,-6.25));
#566=CARTESIAN_POINT('',(5.89637687602428,-11.2089994246416,-6.25));
#567=CARTESIAN_POINT('',(5.52638382669265,-11.0815747777199,-6.25));
#568=CARTESIAN_POINT('',(5.17070646722276,-10.9249485183771,-6.25));
#569=CARTESIAN_POINT('',(4.81502910775286,-10.7683222590343,-6.25));
#570=CARTESIAN_POINT('',(4.47122764910169,-10.581420000551,-6.25));
#571=CARTESIAN_POINT('',(4.14637740571593,-10.3680881264032,-6.25));
#572=CARTESIAN_POINT('',(3.82152716233018,-10.1547562522554,-6.25));
#573=CARTESIAN_POINT('',(3.51339980552001,-9.91353140033917,-6.25));
#574=CARTESIAN_POINT('',(3.22833648912351,-9.6493778942102,-6.25));
#575=CARTESIAN_POINT('',(2.94327317272701,-9.38522438808123,-6.25));
#576=CARTESIAN_POINT('',(2.67931848873917,-9.09633025176534,-6.25));
#577=CARTESIAN_POINT('',(2.44190453275441,-8.78864082611203,-6.25));
#578=CARTESIAN_POINT('',(2.20449057676965,-8.48095140045872,-6.25));
#579=CARTESIAN_POINT('',(1.99198879427629,-8.15235607238182,-6.25));
#580=CARTESIAN_POINT('',(1.80877239805103,-7.80961721944941,-6.25));
#581=CARTESIAN_POINT('',(1.64694728771163,-7.50689457106157,-6.25));
#582=CARTESIAN_POINT('',(1.50701091053227,-7.19142832166252,-6.25));
#583=CARTESIAN_POINT('',(1.39121243958279,-6.86828890545169,-6.25));
#584=CARTESIAN_POINT('',(8.,-4.5,-6.25));
#585=CARTESIAN_POINT('',(6.97802575518324,-1.69214883910176,-30.5857370981782));
#586=CARTESIAN_POINT('',(-3.92114985163819E-15,-7.17935249735076,-47.3013297861318));
#587=CARTESIAN_POINT('',(10.840348971152,-2.8964021803004,-28.2948427911874));
#588=CARTESIAN_POINT('',(12.2758078125884,-2.36486346627169,-28.1013785209208));
#589=CARTESIAN_POINT('',(27.0239404020234,-35.1972943147661,-40.0514060683762));
#590=CARTESIAN_POINT('',(1.39121243958279,-6.8682889054517,-6.25));
#591=CARTESIAN_POINT('',(1.39180423629387,-6.86621386088748,-6.26023839937747));
#592=CARTESIAN_POINT('',(1.39239655616261,-6.86413837144376,-6.27047667837437));
#593=CARTESIAN_POINT('',(1.39298965906773,-6.86206311621347,-6.28071495946918));
#594=CARTESIAN_POINT('',(1.40026726140242,-6.83659893086073,-6.40634263344693));
#595=CARTESIAN_POINT('',(1.40764974320596,-6.8111359197078,-6.53196451455449));
#596=CARTESIAN_POINT('',(1.41513812119731,-6.78567414618693,-6.65758028977683));
#597=CARTESIAN_POINT('',(1.51104090265997,-6.45958818946241,-8.26632683720374));
#598=CARTESIAN_POINT('',(1.62420109862346,-6.1336780432851,-9.87420602250045));
#599=CARTESIAN_POINT('',(1.75747741223582,-5.80811079717488,-11.4803935087589));
#600=CARTESIAN_POINT('',(8.,2.77266121229194,-26.2314724601157));
#601=CARTESIAN_POINT('',(38.6290443140031,-1.427314184401,-27.7601384891622));
#602=CARTESIAN_POINT('',(35.1614571258301,-12.7124646416022,-31.8675973447992));
#603=CARTESIAN_POINT('',(26.9631676316524,-39.3935328924725,-41.5787120065409));
#604=CARTESIAN_POINT('',(8.,-4.5,-6.25));
#605=(
GEOMETRIC_REPRESENTATION_CONTEXT(3)
GLOBAL_UNCERTAINTY_ASSIGNED_CONTEXT((#606))
GLOBAL_UNIT_ASSIGNED_CONTEXT((#612,#608,#607))
REPRESENTATION_CONTEXT('SRHCR-2525-K16','TOP_LEVEL_ASSEMBLY_PART')
);
#606=UNCERTAINTY_MEASURE_WITH_UNIT(LENGTH_MEASURE(0.0508),#612,
'DISTANCE_ACCURACY_VALUE','Maximum Tolerance applied to model');
#607=(
NAMED_UNIT(*)
SI_UNIT($,.STERADIAN.)
SOLID_ANGLE_UNIT()
);
#608=(
CONVERSION_BASED_UNIT('DEGREE',#610)
NAMED_UNIT(#609)
PLANE_ANGLE_UNIT()
);
#609=DIMENSIONAL_EXPONENTS(0.,0.,0.,0.,0.,0.,0.);
#610=PLANE_ANGLE_MEASURE_WITH_UNIT(PLANE_ANGLE_MEASURE(0.0174532925),#611);
#611=(
NAMED_UNIT(*)
PLANE_ANGLE_UNIT()
SI_UNIT($,.RADIAN.)
);
#612=(
LENGTH_UNIT()
NAMED_UNIT(*)
SI_UNIT(.MILLI.,.METRE.)
);
ENDSEC;
END-ISO-10303-21;
